PrimaNota.ru - самый крупный в мире бесплатный архив песенных текстов, аккордов, табулатур и нот


Duane Eddy - Still As The Night - аккорды и текст, видео

Регистрация Запомнить меня
Войти через:  Facebook Google Twitter Vk Yandex Mail.ru

Duane Eddy - Still As The Night - аккорды и текст, видео

Печатать
Просмотров: 75
Уроки эстрадного вокала в Санкт-Петербурге
Still As The Night
Duane Eddy
-------------------------------------------------------------------------------
                        STILL AS THE NIGHT - Duane Eddy
-------------------------------------------------------------------------------
Tabbed by: harrytheblurfan

This was originally by Sanford Clark, I believe, but featured Duane Eddy on the 
guitar and has been covered a few times in recent years. Most notably by the 
Crystal Stilts on their Radiant Door EP and Richard Hawley who also performed 
it with Duane Eddy. Anyway, I can't find any tabs for it (or even lyrics!) so
here they are. 

In the break you can either play the first notes or the chords, both sound 
good so it's up to you.

Tuning: STANDARD

VERSE:

                Em
Still as the night 
                G
Cold as the wind 
                  Em
Don't guess I'll see
            G
My baby again

CHORUS:

C
His devil's smile
               G
Stole her from me
              C
Until she's back
             D
My heart will be

               Em
Still as the night
              G
Cold as the wind

BREAK: 

e|----------------------|
B|----------------------|
G|----------------------|
D|----------------------|
A|-----2----------------|
E|-3-3---3-0~-0-0-2-3~--|

VERSE:

                Em
Still as the night 
                G
Cold as the wind 
                Em
Now her warm lips
              G
Are kissing him

CHORUS:

C
Can't eat, can't sleep
                G
Please make her see
             C
Until she's back
             D
My heart will be

               Em
Still as the night
              G
Cold as the wind

BREAK:

e|--------------------------------------------| 
B|--------------------------------------------|
G|--------------------------------------------|
D|--------------------------------------------|
A|-----2---------------------2----------------|
E|-3-3---3-0~-0-0-2-3~---3-3---3-0~-0-0-2-3~--|

VERSE:

                Em
Still as the night 
                G
Cold as the wind 
            Em
A fool in love
            G
Can never win

CHORUS:

C
No I can't forget
                G
No I can't be free
             C
Until she's back
             D
My heart will be

               Em
Still as the night
              G
Cold as the wind

OUTRO:

e|--------------------------------------------| 
B|--------------------------------------------|
G|--------------------------------------------|
D|--------------------------------------------|
A|-----2---------------------2----------------|
E|-3-3---3-0~-0-0-2-3~---3-3---3-0~-0-0-2-3~--|



CHORDS:

   Em G  C  D
e|-0--3--0--2--|
B|-0--3--1--3--|
G|-0--0--0--2--|
D|-2--0--2--0--|
A|-2--2--3-----|
E|-0--3--3-----|


************************************

| /   slide up
| \   slide down
| h   hammer-on
| p   pull-off
| ~   vibrato
| +   harmonic
| x   Mute note
| b   Bend
| pb  Pre-bend
| br  Bend release
| pbr Pre-bend release
| brb Bend release bend

************************************
Добавлено: 16.11.2015
Другие материалы по этой песне:
  • Аккорды и текст

Страница создана 16.11.2015
http://primanota.ru/duane-eddy/still-as-night-chords.htm
Привет, Гость.
Предлагаем пройти революционный курс по гитаре.
Подарок от PrimaNota.Ru, забирай!