PrimaNota.ru - самый крупный в мире бесплатный архив песенных текстов, аккордов, табулатур и нот


Diiv - Druun - таба, бас-таба, видео

Регистрация Запомнить меня
Войти через:  Facebook Google Twitter Vk Yandex Mail.ru

Diiv - Druun - таба, бас-таба, видео

Печатать
Просмотров: 174
DIIV - (Druun)
From the album OSHIN (Captured Tracks 2012).

Tabbed by Isaac Murguia, June 2012 (re-tabbed April 2013).
YouTube: Goadiroth

=======

Andrew plays this chord all throughout the song,
while Cole plays other lead stuff. It sounds correct enough :) ...
I'm pretty sure Cole uses the Phase effect...

e|------0------|
B|------5------|
G|------9------|
D|------7------|
A|------0------| (good stretch on your fingers!)
E|-------------|

LEAD (comes in at 0:25):
e|-12-------12----12-------|       |-------------------------|
B|----10-10----10----10-10-|       |-------------------------|
G|-------------------------|       |-14-14-14-14-14-14-14-14-|
D|-------------------------|       |-14-14-14-14-14-14-14-14-|
A|-------------------------|       |-12-12-12-12-12-12-12-12-|
E|-------------------------| [x10] |-------------------------| [x12]

 ** this next part, I think Cole plays it as a chord, but I don't
    know what it is, so I just play it like this:

e|-14-141414141414-1212--------------------12------------------------------|
B|----------------------14141414-1212---------14-14-141414-14141414-141414-|
G|------------------------------------1414---------------------------------|
D|-------------------------------------------------------------------------|
A|-------------------------------------------------------------------------|
E|-------------------------------------------------------------------------|

e|-141414-141414141414-1212--------------------12------------------------------|
B|--------------------------14141414-1212---------14-14-141414-14141414-141414-|
G|----------------------------------------1414---------------------------------|
D|-----------------------------------------------------------------------------|
A|-----------------------------------------------------------------------------|
E|-----------------------------------------------------------------------------|

e|-------------------------|      |------------0-----------|
B|-------------------------|      |----2----2----2---2---2-|
G|-14-14-14-14-14-14-14-14-|      |-4-----4--------4-------|
D|-14-14-14-14-14-14-14-14-|      |------------------------|
A|-12-12-12-12-12-12-12-12-|      |------------------------|
E|-------------------------| [x8] |------------------------| [x6]

e|-0--------(0)----|
B|-2---------------|
G|-4-----------(4)-|
D|-0---------------|
A|-----------------|
E|-----------------| end.
Добавлено: 12.10.2013
Другие материалы по этой песне:
  • Аккорды и текст

Страница создана 09.07.2013
http://primanota.ru/diiv/druun-chords.htm
Привет, Гость.
Предлагаем пройти революционный курс по гитаре.
Подарок от PrimaNota.Ru, забирай!