PrimaNota.ru - самый крупный в мире бесплатный архив песенных текстов, аккордов, табулатур и нот


Diiv - Dopamine - таба, бас-таба, видео

Регистрация Запомнить меня
Войти через:  Facebook Google Twitter Vk Yandex Mail.ru

Diiv - Dopamine - таба, бас-таба, видео

Печатать
Просмотров: 77
DIIV - Dopamine
First Single from "Is The Is Are" (Captured Tracks 2015).

Tabbed by Isaac Murguia, September 2015.
Originally uploaded to Ultimate-Guitar.com
Contact: www.youtube.com/user/Goadiroth

BASS INTRO:
  Bass tabbed for guitar (capo on 3rd fret / relative to capo)
e|--------------------------------------------------------------|
B|--------------------------------------------------------------|
G|--------------------------------------------------------------|
D|--------------------------------------------------------------|
A|-9-9-----9---7-7----7-7----7\2-2-----2---2/6--6---6-6\4-4---4-|
E|-----0-----0-----0------0---------0----0--------0---------0---| [x2]

INTRO & VERSE:
  Rhythm Guitar
e|-------------------------------------|
B|-------------------------------------| literally repeats throughout
G|-------0------0--------0-----------0-| whole song except during the bridge.
D|-16-16-----16---16--16----16-14-14---|
A|-------------------------------------|
E|-------------------------------------| [x10]
  Lead Guitar (comes in on 3rd repetition of rhythm guitar)
e|-------------------------|------------------------------|
B|-----0----0-----0------0-|-----0----0-------0---------0-|
G|-7-7----7---7-7----9-9---|-7-7----7---11-11----11-9-9---|
D|-------------------------|------------------------------|
A|-------------------------|------------------------------|
E|-------------------------|------------------------------| [x6]

PRE-CHORUS & CHORUS:
  Rhythm Guitar
e|-------------------------------------|
B|-------------------------------------|
G|-------0------0--------0-----------0-|
D|-16-16-----16---16--16----16-14-14---|
A|-------------------------------------|
E|-------------------------------------| [x8]
  Lead Guitar (comes in on 3rd repetition of rhythm guitar)
e|-------------------------------------|
B|-------------------12-12-------------|
G|-7/9--9/11--11-11---------2-2/4--4/7-|
D|-------------------------------------|
A|-------------------------------------|
E|-------------------------------------| [x6]

Repeat VERSE

BRIDGE:
  Rhythm Guitar [x3]
e|---------------------------------|------------------------|
B|---0---0---0---0---0---0---0---0-|---0--0--0--0--0--0-0-0-|
G|-7-------7-------7-------7-------|-11-11-11-11-11-11-9-9--|
D|-----9-------9-------9-------9---|------------------------|
A|---------------------------------|------------------------|
E|---------------------------------|------------------------|

e|---------------------------------|------------------------|
B|---0---0---0---0---0---0---0---0-|---0--0--0--0--0--0-0-0-|
G|-7-------7-------7-------7-------|-11-11-11-12-12-12-9-9--|
D|-----9-------9-------9-------9---|------------------------|
A|---------------------------------|------------------------|
E|---------------------------------|------------------------|
  Lead Guitar (comes in on 2nd repetition of rhythm guitar)
e|------------------------------|      |------------------------------|
B|------------------------------|      |------------------------------|
G|------------------------------|      |------------------------------|
D|------------------------------|      |------------------------------|
A|-2--2/5-5--7-9---0--4-4--5-7--|      |-2--2/5-5--7-9---0--4-4--4\2--|
E|------------------------------| [x3] |------------------------------|
  Layered Guitar (comes in on 3rd repetition of lead guitar)
e|-------------------------------|
B|-----15--17-19-------14--15-17-|
G|-16--------------14------------|
D|-------------------------------|
A|-------------------------------|
E|-------------------------------| [x2]

Repeat VERSE
Repeat PRE-CHORUS

GUITAR SOLO: (chorus, then lead verse riff [x2] plays in background)
e|------------------------------------------------------|
B|------------------------------------------------------|
G|-/14-14-1414--12-12-12-1212--11-11-11-1111--9-9-9-7---|
D|----------------------------------------------------9-|
A|------------------------------------------------------|
E|------------------------------------------------------| [x4]

Repeat VERSE

END CHORD:
e|-----------|
B|-0---------|
G|-7---------|
D|-9---------|
A|-----------|
E|-----------|

End. Please rate! :D
Добавлено: 09.05.2016
Другие материалы по этой песне:
  • Аккорды и текст

Страница создана 23.03.2016
http://primanota.ru/diiv/dopamine-chords.htm
Привет, Гость.
Предлагаем пройти революционный курс по гитаре.
Подарок от PrimaNota.Ru, забирай!