PrimaNota.ru - самый крупный в мире бесплатный архив песенных текстов, аккордов, табулатур и нот


Diiv - Out Of Mind - бас-таба, видео

Регистрация Запомнить меня
Войти через:  Facebook Google Twitter Vk Yandex Mail.ru

Diiv - Out Of Mind - бас-таба, видео

Печатать
Просмотров: 50
DIIV - Out Of Mind
Track 1 from the album "Is The Is Are" (Captured Tracks 2016).

Tabbed by Isaac Murguia, January 2016.
Originally uploaded to Ultimate-Guitar.com
Contact: www.youtube.com/user/Goadiroth

"12121212" = 12-12-12-12 NOT 1-2-1-2-1-2
"10101010" = 10-10-10-10 NOT 1-0-1-0-1-0

INTRO/VERSE: [x4]
G|--------------7--|-------------------|--------------7--|--------------------|
D|-5-555-7-9-999-9-|-5-555-7\2-2-22224-|-5-555-7-9-999-9-|-0-000-0--777-7\5-5-|
A|-----------------|-------------------|-----------------|--------------------|
E|-----------------|-------------------|-----------------|--------------------|

G|---------------------|---------------7--|---------------------|-------------------------|
D|----------5-5-5/7-77-|----------9-9-9-9-|----------5-5-5/7-77-|-0-000000-/12121212-11-9-|
A|-3-333-3-------------|-7-777-7----------|-3-333-3-------------|-------------------------|
E|---------------------|------------------|---------------------|-------------------------|

BRIDGE: [x5]
G|--------------------------------------------------------|
D|--------------------------------------------------------|
A|-10-101010-101010-101010/121212-12\2-222-222/5-555/7-77-| *slide into the beginning note
E|--------------------------------------------------------|  every other time*

G|--------------------------------------------------------|
D|--------------------------------------------------------|
A|-7/10-101010-101010-101010/121212-12\2-222-222-222/5-55-|
E|--------------------------------------------------------|

OUTRO:
G|----------------------------------------------------------|
D|----------------------------------------------------------|
A|-7/10-101010-101010-101010/121212-12\2-222-222/5-555/7-77-|
E|----------------------------------------------------------| [x2]

G|---------|
D|---------|
A|-10------|
E|---------|

End. Please rate! :D
Добавлено: 23.03.2016
Другие материалы по этой песне:
  • Аккорды и текст

Страница создана 23.03.2016
http://primanota.ru/diiv/out-of-mind-chords.htm
Привет, Гость.
Предлагаем пройти революционный курс по гитаре.
Подарок от PrimaNota.Ru, забирай!