PrimaNota.ru - самый крупный в мире бесплатный архив песенных текстов, аккордов, табулатур и нот


Diiv - Dust Live - таба, видео

Регистрация Запомнить меня
Войти через:  Facebook Google Twitter Vk Yandex Mail.ru

Diiv - Dust Live - таба, видео

Печатать
Просмотров: 192
Уроки эстрадного вокала в Санкт-Петербурге
DIIV - DUST (live version at CT5)
https://www.youtube.com/watch?v=qiEjL6rK0Pk

tab by theFlavio


RIFF1
e|---------------------------7-----|
B|------7-------7-------10------7--|
G|---------------------------------|
D|--9-9---9-9-9---9-9-9----9-------|
A|---------------------------------|
E|---------------------------------|

RIFF2
e|-------------------------------------------|
B|--------7----7---7----------10-----10---10-|
G|-7777-9--------------7777-9----------------|
D|-----------9---9-----------------9----9----|
A|-------------------------------------------|
E|-------------------------------------------|

RIFF3
e|--------------------------------------|
B|--17171717h19p17\-12-15-12--777-5555--|
G|--------------------------------------|
D|--------------------------------------|
A|--------------------------------------|
E|--------------------------------------|

e|--------------------------------------|
B|--17171717h19p17\-12-15-12------------|
G|----------------------------666-4444--|
D|--------------------------------------|
A|--------------------------------------|
E|--------------------------------------|

e|--------------------------------------|
B|--171717-19p17\-12-15-12--777-5555----|
G|--------------------------------------|
D|--------------------------------------|
A|--------------------------------------|
E|--------------------------------------|

e|------------------------|
B|------------------------|
G|---44444444-22222222----|
D|------------------------|
A|------------------------|
E|------------------------|

RIFF1
RIFF2
RIFF3

SOLO (lots of delay)
e|----------------------------------------------------------------------------------|
B|-101010-b121212121212121212-101010101010101010-b1212121212--\5555--/b141414141515-|
G|----------------------------------------------------------------------------------|
D|----------------------------------------------------------------------------------|
A|----------------------------------------------------------------------------------|
E|----------------------------------------------------------------------------------|

e|-----------------------------------1717171717171717-//19191919191919191919--------|
B|-151515///191919191919202020202020------------------------------------------------|
G|----------------------------------------------------------------------------------|
D|----------------------------------------------------------------------------------|
A|----------------------------------------------------------------------------------|
E|----------------------------------------------------------------------------------|

e|-20202020202020191919--171717171171717-15151515-14141414--/1717171717171718181818-|
B|----------------------------------------------------------------------------------|
G|----------------------------------------------------------------------------------|
D|----------------------------------------------------------------------------------|
A|----------------------------------------------------------------------------------|
E|----------------------------------------------------------------------------------|

e|----------------------------------------------------------------------------------|
B|-1010-b1212121212121212-1010101010101010-b1212121212121212-1010101010101010-------|
G|----------------------------------------------------------------------------------|
D|----------------------------------------------------------------------------------|
A|----------------------------------------------------------------------------------|
E|----------------------------------------------------------------------------------|

e|----------------------------------------------------------------------------------|
B|------b1212121212121212-1010101010101010-b1212121212121212-1010101010101010-------|
G|----------------------------------------------------------------------------------|
D|----------------------------------------------------------------------------------|
A|----------------------------------------------------------------------------------|
E|----------------------------------------------------------------------------------|

e|---------------------------------------------------------------------------------------|
B|-7777777777777777-5555-3-55-777777\-00000000--5/777777777b8888-777777-55-333333-00000--|
G|---------------------------------------------------------------------------------------|
D|---------------------------------------------------------------------------------------|
A|---------------------------------------------------------------------------------------|
E|---------------------------------------------------------------------------------------|

e|---------------------------------------------------------------------------------------|
B|00000-222222-333333-555555-777777777777-888-1010101010-1212121212-1414141414-1212121212|
G|---------------------------------------------------------------------------------------|
D|---------------------------------------------------------------------------------------|
A|---------------------------------------------------------------------------------------|
E|---------------------------------------------------------------------------------------|

e|---------------------------------------------------------------------------------------|
B|-1515151515-17171717-15-1717-2020202020-1717171717-2020202020-121212-------------------|
G|---------------------------------------------------------------------------------------|
D|---------------------------------------------------------------------------------------|
A|---------------------------------------------------------------------------------------|
E|---------------------------------------------------------------------------------------|

e|-/171717171717-191919191919191919-17171717-15151515141414-1515151515-1717171717--------|
B|---------------------------------------------------------------------------------------|
G|---------------------------------------------------------------------------------------|
D|---------------------------------------------------------------------------------------|
A|---------------------------------------------------------------------------------------|
E|---------------------------------------------------------------------------------------|

e|---------------------------------------------------------------------------------------|
B|-777777-555-33333333-/777777-333-000000-/-7777777777777b8888-7777777777777777----------|
G|---------------------------------------------------------------------------------------|
D|---------------------------------------------------------------------------------------|
A|---------------------------------------------------------------------------------------|
E|---------------------------------------------------------------------------------------|

RIFF3

END
e|---------------------------------|
B|---------------------------------|
G|-4444444444-b555555555--444444---|
D|---------------------------------|
A|---------------------------------|
E|---------------------------------|
Добавлено: 25.07.2015
Другие материалы по этой песне:
  • Аккорды и текст

Страница создана 25.07.2015
http://primanota.ru/diiv/dust-live-chords.htm
Привет, Гость.
Предлагаем пройти революционный курс по гитаре.
Подарок от PrimaNota.Ru, забирай!