PrimaNota.ru - самый крупный в мире бесплатный архив песенных текстов, аккордов, табулатур и нот


Diiv - Earthboy - таба, бас-таба, видео

Регистрация Запомнить меня
Войти через:  Facebook Google Twitter Vk Yandex Mail.ru

Diiv - Earthboy - таба, бас-таба, видео

Печатать
Просмотров: 171
DIIV - Earthboy
From the album OSHIN (Captured Tracks 2012).

Tabbed by Isaac Murguia, August 2012.
YouTube: Goadiroth

I know this is probably not 100% accurate,
but it's very close to how they play it!

INTRO:
e|-------|-----5-----5-----5-----7-----7-|---3---3---3----------------|
B|-55555-|---5-----5-----5-----5-----5---|-5---5---5----5---5-5---5---|
G|-------|-7-----7-----7-----7-----------|----------------7-----7---5-|
D|-------|-------------------------------|----------------------------|
A|-------|-------------------------------|----------------------------|
E|-------|-------------------------------|----------------------------|

e|-----5-----5-----5-----7-----7-|---3---3---3--------|
B|---5-----5-----5-----5-----5---|-5---5---5----5-----|
G|-7-----7-----7-----7-----------|----------------7/--|
D|-------------------------------|--------------------|
A|-------------------------------|--------------------|
E|-------------------------------|--------------------|

GUITAR LEAD:
e|--------------|----12----12----12----15----15----12----12----12-|
B|--------------|-15----15----15----15----15----15----15----15----|
G|-/121212-1414-|-------------------------------------------------|
D|--------------|-------------------------------------------------|
A|--------------|-------------------------------------------------|
E|--------------|-------------------------------------------------|

e|--------------|----12----12----12----15----15----12----12--19-19-17-15-|
B|-131313131313-|-15----15----15----15----15----15----15-----------------|
G|--------------|--------------------------------------------------------|
D|--------------|--------------------------------------------------------|
A|--------------|--------------------------------------------------------|
E|--------------|--------------------------------------------------------|

Repeat INTRO
Repeat GUITAR LEAD

CHORUS: "Earthboy....earthboy...."
e|-------------------------------|--------------------------7------|
B|------------------------8------|----------------------------8-10-|
G|-9-7-7-5-5/7-7-7--9-9-9----9-9-|-999-7-7-5-5/7-7-7--9-9-9--------|
D|-------------------------------|---------------------------------|
A|-------------------------------|---------------------------------|
E|-------------------------------|---------------------------------| [x4]

BRIDGE:
e|-----------------------------------7---7---7---|
B|---8---8---8---10---10---10---10---------------|
G|-9--99--99--99---99---99---99---99--99--99--99-|
D|-----------------------------------------------|
A|-----------------------------------------------|
E|-----------------------------------------------|
                                                (bend a little)
e|-------------------------------------7---7---|-3-----------------|-------|
B|-8---8---8---8---10---10---10---10-----------|-5-----5---3-------|-55555-|
G|--99--99--99--99---99---99---99---99--99--99-|-4------6----4-2-0-|-------|
D|---------------------------------------------|-0-----------------|-------|
A|---------------------------------------------|-------------------|-------|
E|---------------------------------------------|-------------------|-------|

OUTRO:
e|---------------------------------|----------------------------------|
B|-----10-----------------12-10-12-|------------------13131212131312\-|
G|-7/9----12121212--7/9-9----------|-9/12-9/12-12-12------------------|
D|---------------------------------|----------------------------------|
A|---------------------------------|----------------------------------|
E|---------------------------------|----------------------------------| [x4]

  play this right after the "12"
e|---------------|
B|-0-0-----------|
G|---------------|
D|---------------|
A|---------------|
E|---------------|

CODA:
          [x3]
e|-------0------5-7---5-|-------0------5-7---|
B|-3-3-3------6-----8---|-3-3-3------6-----8-|
G|---------0------------|---------0----------|
D|----------------------|--------------------|
A|----------------------|--------------------|
E|----------------------|--------------------| end.
Добавлено: 27.10.2013
Другие материалы по этой песне:
  • Аккорды и текст

Страница создана 27.10.2013
http://primanota.ru/diiv/earthboy-chords.htm
Привет, Гость.
Предлагаем пройти революционный курс по гитаре.
Подарок от PrimaNota.Ru, забирай!