PrimaNota.ru - самый крупный в мире бесплатный архив песенных текстов, аккордов, табулатур и нот


Diiv - Big Joke - таба, видео

Регистрация Запомнить меня
Войти через:  Facebook Google Twitter Vk Yandex Mail.ru

Diiv - Big Joke - таба, видео

Печатать
Просмотров: 191
Уроки эстрадного вокала в Санкт-Петербурге
DIIV - Big Joke
B-side from the Human 7" (captured tracks 2011).

Tabbed by Isaac Murguia, July 2012.
YouTube: Goadiroth

The quote at the end is, "He's such an asshole. I want you
all to say 'asshole' really loud." (crowd: "Asshole!") It's
Courtney Love referring to Kurt Cobain. This quote is right
before she starts reading part of his suicide note to an audience.

INTRO MELODY:
e|-12----------------|----------------------|
B|-----13--12--------|-------12-13-15-13-12-|
G|-------------14-12-|-12-14----------------|
D|-------------------|----------------------|
A|-------------------|----------------------|
E|-------------------|----------------------|

GUITAR LEAD: (x2)
e|-12-12-12-12-12-12-12-12-|----------------15-15-15-|
B|-------------------------|-15-15-15-15-15----------|
G|-------------------------|-------------------------|
D|-------------------------|-------------------------|
A|-------------------------|-------------------------|
E|-------------------------|-------------------------|

e|-17----17----17----15----|----12----12----12----12-|
B|----15----15----15----15-|-15----15----15----15----|
G|-------------------------|-------------------------|
D|-------------------------|-------------------------|
A|-------------------------|-------------------------|
E|-------------------------|-------------------------|

VERSE: (x2)
            (x2)             (10, not 1-0)
e|-------------------------|--------------------------------|
B|-8888888-----------------|-10101010101010-----------------|
G|---------9-7-9-7---7-9-7-|----------------9-7-9-7---7-9-7-|
D|-------------------------|--------------------------------|
A|-------------------------|--------------------------------|
E|-------------------------|--------------------------------|

e|-------------------------------------|
B|-10-10-10-10-10-10-10-----------8888-|
G|----------------------9-7-9-7-9------|
D|-------------------------------------|
A|-------------------------------------|
E|-------------------------------------|

Repeat GUITAR LEAD
Repeat VERSE
Repeat GUITAR LEAD

OUTRO:
e|-88-77---------------------|
B|-------88--10-10-----------|
G|-----------------999-77777-|
D|---------------------------| (x8)
A|---------------------------|
E|---------------------------|
Добавлено: 03.10.2013
Другие материалы по этой песне:
  • Аккорды и текст

Страница создана 03.10.2013
http://primanota.ru/diiv/big-joke-chords.htm
Привет, Гость.
Предлагаем пройти революционный курс по гитаре.
Подарок от PrimaNota.Ru, забирай!