PrimaNota.ru - самый крупный в мире бесплатный архив песенных текстов, аккордов, табулатур и нот


Diiv - Doused - таба, бас-таба, видео

Регистрация Запомнить меня
Войти через:  Facebook Google Twitter Vk Yandex Mail.ru

Diiv - Doused - таба, бас-таба, видео

Печатать
Просмотров: 530
DIIV - Doused
From their debut album Oshin (Captured Tracks 2012).

Tabbed by Isaac Murguia, June 2012 (updated 05.15.13).
YouTube: Goadiroth

INTRO:
  Guitar 1      ||
e|--------------||------------------------------------------|
B|--------------||---------------------------------13----13-|
G|-12-----12----||-12-12-12-12-(x6)-10-10-10-10-10----10----|
D|-----10----10-||------------------------------------------|
A|--------------||------------------------------------------|
E|--------------||------------------------------------------|

e|------------------------------------------|
B|---------------------------------13-13-13-|
G|-12-12-12-12-(x6)-10-10-10-10-10----------|
D|------------------------------------------|
A|------------------------------------------|
E|------------------------------------------|

  Guitar 2      || BAILEY RIFF
e|--------------||------------------------------------|
B|--------------||------------------------------------|
G|-----5--5--5--||-5555-(x3)-5--------------------555-|
D|--------------||------------666-5555-5555-3333-3----|
A|--------------||------------------------------------|
E|--------------||------------------------------------|

CHORUS: (note: he doesn't play this exactly the same all the time)
e|---------------------------|-------------------------|
B|-13-13---------------------|-13----------------------|
G|-------12-10-12---12-10-12-|----12-10-12-13-12-10-12-|
D|---------------------------|-------------------------|
A|---------------------------|-------------------------|
E|---------------------------|-------------------------|

e|---------------------------|-------------------------------|
B|-13-13---------------------|-13-13-------------------------|
G|-------12-10-12---12-10-12-|-------12-10-12-13-13-12-10-12-|
D|---------------------------|-------------------------------|
A|---------------------------|-------------------------------|
E|---------------------------|-------------------------------| (x2)

e|---------------------------|----------------------------|
B|-13-13---------------------|-13-13----------------------|
G|-------12-10-12---12-10-12-|-------12-10-12-13-12-10-12-|
D|---------------------------|----------------------------|
A|---------------------------|----------------------------|
E|---------------------------|----------------------------|

Repeat "BAILEY RIFF" from INTRO (x4)
Repeat CHORUS
Repeat "BAILEY RIFF" (x3)
RIFF ENDING: (1:47)
  Guitar 1
e|-----------------------------------------|
B|-----------------------------------------|
G|-------------------------------8888-8888-|
D|-----------------------------------------|
A|-----------------------------------------|
E|-----------------------------------------|
  Guitar 2
e|-----------------------------------------|
B|-----------------------------------------|
G|-5555-5555-5555-5------------------------|
D|-----------------666-5555-5555-3333-3333-|
A|-----------------------------------------|
E|-----------------------------------------|

BRIDGE:
e|----------------------------------|------------------------|
B|----------------------------------|---------------------13-|
G|-8----------------------------8-8-|-888-10-10--12-12-12----|
D|---10---10-8-10-10---10-10-10-----|------------------------|
A|----------------------------------|------------------------|
E|----------------------------------|------------------------| (x4)

Repeat CHORUS

BRIDGE 2:
e|----------------|
B|----------------|
G|----0-----0---0-|
D|-5----5-----5---|
A|----------------|
E|----------------| (x8)

SOLO:
e|-----------------------------|---------------------------------|
B|-----------------------------|---------------------------------|
G|--------------------8-7------|---------------------------------|
D|-8h10-8h10-10-10-10-----10-8-|-8h10-8h10-10-10-10--6-6-6-5-5-5-|
A|-----------------------------|---------------------------------|
E|-----------------------------|---------------------------------| (x4)

Repeat CHORUS

End. Please rate/comment!
Добавлено: 11.06.2013
Другие материалы по этой песне:
  • Аккорды и текст

Страница создана 11.06.2013
http://primanota.ru/diiv/doused-chords.htm
Привет, Гость.
Предлагаем пройти революционный курс по гитаре.
Подарок от PrimaNota.Ru, забирай!