PrimaNota.ru - самый крупный в мире бесплатный архив песенных текстов, аккордов, табулатур и нот


Devildriver - The Fury Of Our Makers Hand - текст песни, таба, бас-таба, видео

Регистрация Запомнить меня
Войти через:  Facebook Google Twitter Vk Yandex Mail.ru

Devildriver - The Fury Of Our Makers Hand - текст песни, таба, бас-таба, видео

Печатать
Просмотров: 207
Уроки эстрадного вокала в Санкт-Петербурге
-------------------------------------------------------------------------------
                   THE FURY OF OUR MAKER'S HAND - DevilDriver
-------------------------------------------------------------------------------

Tabbed by: Tyler Greig

Email: gtheleadguitarist@hotmail.com


| /  slide up
| \  slide down
| h  hammer-on
| p  pull-off
| v  vibrato
| +  harmonic
| x  Mute note
| ph pinch harmonic
| b  bend
| ~  let ring


Tuning: Drop D down 1 1/2 steps (B F# B E G# C#)


Rhythms aren't tabbed out too accurately- listen to the song, you shouldn't have
too much trouble picking it up.
The riffs were I've got guitar 2 droning on the E string (B in this song), you can
try to put both guitar parts together if you're good enough :)
Enjoy!

Intro
|-----|
|-----|
|-----|
|-12\-|
|-12\-|
|-12\-|

|-----------------------------------------------------------------------------|
|-----------------------------------------------------------------------------|
|-----------------------------------------------------------------------------|
|-7----7----7----7-0-----0----0----0----3----3----3----3-2-----2----2----2----|
|-7-77-7-77-7-77-7-0--00-0-00-0-00-0-00-3-33-3-33-3-33-3-2--22-2-22-2-22-2-22-|
|-7-77-7-77-7-77-7-0--00-0-00-0-00-0-00-3-33-3-33-3-33-3-2--22-2-22-2-22-2-22-| x4
PM  ..   ..   ..      ..   ..   ..   ..   ..   ..   ..      ..   ..   ..   ..

After 4th repeat:
|----|
|----|
|----|
|-7~-|
|-7~-|
|-7~-|

Guitar 2 lead (During 3rd and 4th repeats of riff above)
|----------------------------------------------------------|
|----------------------------------------------------------|
|-14-14-14-16-17-1717-17-1717--19-19-19-17-16-1616-16-1616-|
|--x--x--x--x--x--x-x--x--x-x---x--x--x--x--x--x-x--x--x-x-|
|-12-12-12-14-15-1515-15-1515--17-17-17-15-14-1414-14-1414-|
|----------------------------------------------------------|

|-------------------------------------------------|
|-------------------------------------------------|
|-14-14-14-16-17-1717-17-1717--10101010\9-99-9-99-|
|--x--x--x--x--x--x-x--x--x-x---x-x-x-x-x-xx-x-xx-|
|-12-12-12-14-15-1515-15-1515---8-8-8-8\7-77-7-77-|
|-------------------------------------------------|




Verse Part 1 (clean with delay/reverb or whatever.)
|-------------------------------------------------------|
|-------------------------------------------------------|
|-----------------------------------------------12-10~--|
|-7-7-9-7~----7-9-10-9~----9-10-12-10~----10-12---------|
|-------------------------------------------------------|
|-------------------------------------------------------|x4
                           ^ pickscrape comes in on the 4th time


Verse Part 2 (Distortion on)
 Guitar 1
|-------------------------------------------------------------------------------|
|-------------------------------------------------------------------------------|
|-------------------------------------------------------------------------------|
|-------------------------------------------------------------------------------|
|-------------------------------------------------------------------------------|
|-7-7------7-9-------9-10-------10-12------7-7-------7-9-------9-10-------10-12-|x2
 Guitar 2 (not the exact number of notes strummed)                                                       
|-------------------------------------------------------------------------------|
|-------------------------------------------------------------------------------|
|-------------------------------------------------------------------------------|
|-------------------------------------------------------------------------------|
|-------------------------------------------------------------------------------|
|-77777777777777777777777777777777777777777777777777777777777777777777777777777-|x2
PM.............................................................................

Pre-Chorus
|---------------------------------|
|---------------------------------|
|---------------------------------|
|-3-3-3-3-3-3-3-3-0-0-0-0-0-0-0-0-|
|-3-3-3-3-3-3-3-3-0-0-0-0-0-0-0-0-|
|-3-3-3-3-3-3-3-3-0-0-0-0-0-0-0-0-|

Chorus
|-----------------------------------------------------------------------------|
|-----------------------------------------------------------------------------|
|-----------------------------------------------------------------------------|
|-7----7----7----7-0-----0----0----0----3----3----3----3-2-----2----2----2----|
|-7-77-7-77-7-77-7-0--00-0-00-0-00-0-00-3-33-3-33-3-33-3-2--22-2-22-2-22-2-22-|
|-7-77-7-77-7-77-7-0--00-0-00-0-00-0-00-3-33-3-33-3-33-3-2--22-2-22-2-22-2-22-| x2
PM  ..   ..   ..      ..   ..   ..   ..   ..   ..   ..      ..   ..   ..   ..

|----|
|----|
|----|
|-7~-|
|-7~-|
|-7~-|


Verse Part 1
Verse Part 2


Verse Part 3 (Yes, I know there's a harmony here, but i'm only tabbing one part)
|----------------------------------------------------------------------------------------|
|----------------------------------------------------------------------------------------|
|-12--9p5----9--12p9----7--12p7-----------------12--9p5----9--12p9----7--12p7------------|
|------------------------------------7-9-10---------------------------------------9-10-7-|
|----------------------------------------------------------------------------------------|
|----------------------------------------------------------------------------------------|
 Guitar 2
|----------------------------------------------------------------------------------------|
|----------------------------------------------------------------------------------------|
|----------------------------------------------------------------------------------------|
|----------------------------------------------------------------------------------------|
|----------------------------------------------------------------------------------------|
|-77777777777777777777777777777777777777777777777777777777777777777777777777777777777777-|
PM......................................................................................


Pre-Chorus
Chorus


Bridge (tremolo pick whole thing)
 Guitar 1
|------------------------------------------------------------|
|------------------------------------------------------------|
|----------------------10-7-10-7-----------------------------|
|-7----10-7-10-7-----------------------10-7-10-7-------------|
|-----------------5-------------------------------7----5h7p5-|
|---------------------------------7--------------------------|
 Guitar 2                                                    |
|------------------------------------------------------------|
|------------------------------------------------------------|
|------------------------------------------------------------|
|-7~--------------0~--------------3~--------------2~---------|
|-7~--------------0~--------------3~--------------2~---------|
|-7~--------------0~--------------3~--------------2~---------|

Bridge Part 2 
|------------------------------------------------------------------|
|------------------------------------------------------------------|
|------------------------------------------------------------------|
|------------------------------------------------------------------|
|-5555555577557755-55555555588557755-5555555577557755-55555555-7-8-|
|-0000000000000000-00000000000000000-0000000000000000-00000000-7-8-|x2

Bridge Part 3
 Guitar 1 (clean)
|-----------------------------------------------|
|-----------------------------------------------|
|-------5-5-5-------5-5-5-------5-5-5-------5-4-|
|---5/7---------5/7---------5/7---------5/7-----|
|-0-----------0-----------0-----------0---------|
|-----------------------------------------------|
 Guitar 2 (distorted)                           |
|-----------------------------------------------|
|-----------------------------------------------|
|-----------------------------------------------|
|--7~---------------------6~--------------------|
|--7~---------------------6~--------------------|
|--7~---------------------6~--------------------|x2

Bridge Part 4
|-----------------------------------------------------------|
|-----------------------------------------------------------|
|-----------------------------------------------------------|
|-6h7-7-7-7-7-7-7-7-7-7-7-7-7-5h6-6-6-6-6-6-6-6-6-6-6-6-6-6-|
|-6h7-7-7-7-7-7-7-7-7-7-7-7-7-5h6-6-6-6-6-6-6-6-6-6-6-6-6-6-|
|-6h7-7-7-7-7-7-7-7-7-7-7-7-7-5h6-6-6-6-6-6-6-6-6-6-6-6-6-6-|x2
PM                        . .                           . .


Bridge Part 1
Chorus
Bridge Part 1 

fade out


Ending (clean)
 Guitar 1 (reverb/delay or whatever)
|-----------------------------|
|-----------------------------|
|-----------------------12----|
|-7-7----7-9----9-10-------12-|
|-----------------------------|
|-----------------------------|
 Guitar 2                     |
|-----------------------------|
|-----------------------------|
|-----------------------------|
|-----------------------------|
|-----------------------------|
|-7-7-7-7-7-7-7-7-7-7-7-7-7-7-|

============================================================================
Добавлено: 16.06.2012
Другие материалы по этой песне:

Страница создана 06.03.2012
http://primanota.ru/devildriver/the-fury-of-our-makers-hand-chords.htm
Привет, Гость.
Предлагаем пройти революционный курс по гитаре.
Подарок от PrimaNota.Ru, забирай!