PrimaNota.ru - самый крупный в мире бесплатный архив песенных текстов, аккордов, табулатур и нот


Devildriver - The Mountain - текст песни, таба, видео

Регистрация Запомнить меня
Войти через:  Facebook Google Twitter Vk Yandex Mail.ru

Devildriver - The Mountain - текст песни, таба, видео

Печатать
Просмотров: 202
PLEASE NOTE: This is my second attempt at tabbing a song by ear, and although I think 
very accurate, I'm still new to this. So don't judge too harshly!

ALSO: Although I ranked it as "Intermediate" level, it may seem advanced to newer 
Only the Intros and Chorus B though!

Tabbed by: Snap017
Email: ruroni017@yahoo.com

Tuning: D standard (DGCFAD)


Intro A: Repeat 8 times
D|--------------------------------------------|
A|-------------------------------------------O|
F|--------------------------------------------|
C|--------------------------------------------|
G|-------------------------------------------O|
D|--9h12p9\8h11p8/9h12p9\8h11p8-9h12p9\8h11p8-|


Intro B: Repeat 4 times
D|--------------------------------------|
A|-------------------------------------O|
F|--------------------------------------|
C|--------------------------------------|
G|-------------------------------------O|
D|--4h7p4\3h6p3/4h7p4\3h6p3-4h7p4\3h6p3-|


VERSE: Repeat 8 times
D|--------------------------------------------------------|
A|-------------------------------------------------------O|
F|--------------------------------------------------------|
C|-----2--2--------2--2--------2--2-----------------------|
G|-----2--2--------2--2--------2--2----------------------O|
D|-0-0-0--0--0-0-0-0--0--0-0-0-0--0--0-0h1p0-0h2p0-0h3p0--|
   * * *     * * * *     * * * *       *


PRE-CHORUS: Repeat 4 times
D|-------------------------------------|
A|------------------------------------O|
F|-7-7-7-7-7-6-6-6-9-9-7-7-7-7-10-10---|
C|-------------------------------------|
G|------------------------------------O|
D|-------------------------------------|


Chorus A: Repeat 4 times
D|-------------------|
A|------------------O|
F|-------------------|
C|-3--2--5-4--3--4---|
G|-3--2--5-4--3--4--O|
D|-1--0--3-2--1--2---|


Chorus B: Repeat 4 times
D|--ttttttttttt13-ttttttt12-ttttttt15-tttttttttttt13-ttttt16---|
A|------------------------------------------------------------O|
F|-------------------------------------------------------------|
C|-------------------------------------------------------------|
G|------------------------------------------------------------O|
D|-------------------------------------------------------------|


Song so far:
Intro A
Intro B
Verse
Pre-chorus
Chorus A
Chorus B
Intro A (4 times)
Intro B (4 times)
Verse
Chorus A
Chorus B

Breakdown A: Repeat 3 times
D|----------------------------------------|
A|---------------------------------------O|
F|----------------------------------------|
C|--------------------------------5-4-3---|
G|--2/4-5~~--2/4-5~~--2/4-5~~-2/4-5-4-3--O|
D|----(x)------(x)------(x)-------3-2-1---|

Breakdown B: Repeat 3 times
D|----------------------------------------------|
A|---------------------------------------------O|
F|----------------------------------------------|
C|--5-2-2-3---5-2-2-3---5-2-2-3---5-2-2-4-3-2---|
G|--5-2-2-3---5-2-2-3---5-2-2-3---5-2-2-4-3-2--O|
D|--3-0-0-1---3-0-0-1---3-0-0-1---3-0-0-2-1-0---|

Full song:
Intro A
Intro B
Verse
Pre-chorus
Chorus A
Chorus B
Intro A (4 times)
Intro B (4 times)
Verse
Chorus A
Chorus B
Breakdown A
Breakdown B
Intro A (4 times)
Intro B (4 times)
[end]

And that's it! I hope you enjoyed playing this tab as much as I did! Keep rockin'!

-- Snap017


| /  slide up
| \  slide down
| h  hammer-on
| p  pull-off
| ~  vibrato
| +  harmonic
| x  Mute note
=========================================================================
Добавлено: 23.06.2012
Другие материалы по этой песне:

Страница создана 04.03.2012
http://primanota.ru/devildriver/the-mountain-chords.htm
Привет, Гость.
Предлагаем пройти революционный курс по гитаре.
Подарок от PrimaNota.Ru, забирай!