PrimaNota.ru - самый крупный в мире бесплатный архив песенных текстов, аккордов, табулатур и нот


Devildriver - Sail - таба, видео

Регистрация Запомнить меня
Войти через:  Facebook Google Twitter Vk Yandex Mail.ru

Devildriver - Sail - таба, видео

Печатать
Просмотров: 269
Авторы музыки: Aaron Bruno
Авторы текста: Aaron Bruno
DEVILDRIVER

SAIL



Db-Ab-Db-Gb-Bb-Eb


TABBED BY andherembrace


clean

pm'd throughout
-----------------------------------------------------------------|
-----------------------------------------------------8-----------|
-----9-------9-------9-------9-------7-------7-----7---7-----7---|
---9---9---9---9---9---9---9---9---7---7---7---7-5---------7---7-|
-7-------7-------7-------7-------5-------5---------------5-------|
-----------------------------------------------------------------|




pm'd throughout
-------------------------------------------------|
-------------------------------------------------|
-------------------------------------------------|
-2--2--2--2--2--2--5--5--2--2--2--2--2--2--5--5--|
-2--2--2--2--2--2--5--5--2--2--2--2--2--2--5--5--|
-2--2--2--2--2--2--5--5--2--2--2--2--2--2--5--5--|

pm'd throughout
-------------------------------------------------|
-------------------------------------------------|
-------------------------------------------------|
-0--0--0--0--0--0--0--0--5--5--5--5--0--0--0--0--|
-0--0--0--0--0--0--0--0--5--5--5--5--0--0--0--0--|
-0--0--0--0--0--0--0--0--5--5--5--5--0--0--0--0--|






0:34


-----------------------------------------------------------------------|
-----------------------------------------------------------------------|
-----------------------------------------------------------------------|
-2--------------------7--9\--7------2--------------------7--9\--7------|
-2-----7-7-7-10-10-10----------10-7-2-----7-7-7-10-10-10----------10-7-|
-2----------------------------------2----------------------------------|
                        


------------------------------------------------------------12\---|
----------------------------------------------)-------------------|
---------------------------------------------7--------9-9-9-------|
-0------------------------5------5----9-9-9------0----------------|
-0-----5-5-5-7-7-7----7\----7-5--5---------------0----------------|
-0-----------------9-------------5---------------0----------------|






0:50

-------------------------_____--------------------_____--------|
------------------------)--|-(--------------------)--|-(-------|
-/9~~-----------------10--10----9~~-------------10--10----7~~--|
---------------------------------------------------------------|
---------------------------------------------------------------|
---------------------------------------------------------------|



--------------------------------------|
-------)------)-(---------------------|
-----10-----10----7~~~-----7/9-9~~----|
--------------------------------------|
--------------------------------------|
--------------------------------------|




1:06


-----------------------------------------------------------------------|
-----------------------------------------------------------------------|
-----------------------------------------------------------------------|
-2--------------------7--9---7------2--------------------7--9---7------|
-2-----7-7-7-10-10-10----------10-7-2-----7-7-7-10-10-10----------10-7-|
-2----------------------------------2----------------------------------|
       * * *  *  *  *  *  *   *           * * *  *  *  *  *  *   *   

------------------------------------------------------------12\---|
----------------------------------------------)-------------------|
---------------------------------------------7--------9-9-9-------|
-0------------------------5------5----9-9-9------0----------------|
-0-----5-5-5-7-7-7----7-----7-5--5---------------0----------------|
-0-----------------9-------------5---------------0----------------|
       * * * * * * *  *       

-----------------------------------------------------------------------|
-----------------------------------------------------------------------|
-----------------------------------------------------------------------|
-2--------------------7--9---7------2--------------------7--9---7------|
-2-----7-7-7-10-10-10----------10-7-2-----7-7-7-10-10-10----------10-7-|
-2----------------------------------2----------------------------------|


------------------------------------------------------------12\---|
----------------------------------------------)-------------------|
---------------------------------------------7--------9-9-9-------|
-0------------------------5------5----9-9-9------0----------------|
-0-----5-5-5-7-7-7----7-----7-5--5---------------0----------------|
-0-----------------9-------------5---------------0----------------|





1:39


-------------------------------------------------------------------|
-------------------------------------------------------------------|
-------------------------------------------------------------------|
-----------7-7-9-9-7-7-------------------------7-7-9-9-7-7---------|
-7-7-10-10-------------10-10-7-7-7-7-7-7-10-10-------------7-7-7-7-|
-------------------------------------------------------------------|


---------------------------------------------------------12-12-12-12-|
---------------------------------------------------------------------|
-----------------------------------------7-7-7-7-9-9-9-9-------------|
---------------------------------9-9-9-9-----------------------------|
-7-7-5-5-----7-7-5-5-7-7-5-5-5-5-------------------------------------|
---------9-9---------------------------------------------------------|





-------------------------------------------------------------------|
-------------------------------------------------------------------|
-------------------------------------------------------------------|
-----------7-7-9-9-7-7-------------------------7-7-9-9-7-7---------|
-7-7-10-10-------------10-10-7-7-7-7-7-7-10-10-------------7-7-7-7-|
-------------------------------------------------------------------|


--------------------------------------------------------------|
--------------------------------------------------------------|
--------------------------------------------------------------|
--------------------------------------------------------------|
-7-7-5-5-----7-7-5-5-7-7-5-5-5-5---------5-5-5-5-7-7-7-7-7\---|
---------9-9---------------------9-9-9-9----------------------|





1:56 w/1:06 riff

pm'd throughout
---------------------------------------------|
---------------------------------------------|
---------------------------------------------|
---5------5------5------5------5------5------|
-----7------7------7------7------7------7----|
-------9------9------9------9------9------9--|


---------------------------------------------|
---------------------------------------------|
---------------------------------------------|
---5------5------5------5------5------5------|
-----7------7------7------7------7------7----|
-------9------9------9------9------9------9--|



---------------------------------------------|
---------------------------------------------|
---------------------------------------------|
----------------------------5----------------|
---9-5---7-5-7----5---7-5-----5---9-5--------|
-------7--------9---7-----7-----7-----7------|



--------------------------------------------|
--------------------------------------------|
--------------------------------------------|
-9-5---9-5----------------------------------|
-----5-----5----------7-5---9-5-------------|
--------------------------7-----7-----------|




---------------------------------------------|
---------------------------------------------|
---------------------------------------------|
---5------5------5------5------5------5------|
-----7------7------7------7------7------7----|
-------9------9------9------9------9------9--|


---------------------------------------------|
---------------------------------------------|
---------------------------------------------|
---5------5------5------5------5------5------|
-----7------7------7------7------7------7----|
-------9------9------9------9------9------9--|



---------------------------------------------|
---------------------------------------------|
---------------------------------------------|
----------------------------5----------------|
---9-5---7-5-7----5---7-5-----5---9-5--------|
-------7--------9---7-----7-----7-----7------|



--------------------------------------------|
--------------------------------------------|
--------------------------------------------|
-9-5---9-5----------------------------------|
-----5-----5----------7-5---9-5-------------|
--------------------------7-----7-----------|






2:27


-------------------------------------------------------------------|
-------------------------------------------------------------------|
-------------------------------------------------------------------|
-----------7-7-9-9-7-7-------------------------7-7-9-9-7-7---------|
-7-7-10-10-------------10-10-7-7-7-7-7-7-10-10-------------7-7-7-7-|
-------------------------------------------------------------------|


---------------------------------------------------------12-12-12-12-|
---------------------------------------------------------------------|
-----------------------------------------7-7-7-7-9-9-9-9-------------|
---------------------------------9-9-9-9-----------------------------|
-7-7-5-5-----7-7-5-5-7-7-5-5-5-5-------------------------------------|
---------9-9---------------------------------------------------------|



-------------------------------------------------------------------|
-------------------------------------------------------------------|
-------------------------------------------------------------------|
-----------7-7-9-9-7-7-------------------------7-7-9-9-7-7---------|
-7-7-10-10-------------10-10-7-7-7-7-7-7-10-10-------------7-7-7-7-|
-------------------------------------------------------------------|


--------------------------------------------------------------|
--------------------------------------------------------------|
--------------------------------------------------------------|
--------------------------------------------------------------|
-7-7-5-5-----7-7-5-5-7-7-5-5-5-5---------5-5-5-5-7-7-7-7-7\---|
---------9-9---------------------9-9-9-9----------------------|





2:43

------------------------------------------------------------------|
------------------------------------------------------------------|
------------------------------------------------------------------|
-2222222222225555222222222222555500000000000000005555555500000000-|
-2222222222225555222222222222555500000000000000005555555500000000-|
-2222222222225555222222222222555500000000000000005555555500000000-|

------------------------------------------------------------------|
------------------------------------------------------------------|
------------------------------------------------------------------|
-2222222222225555222222222222555500000000000000005555555500000000-|
-2222222222225555222222222222555500000000000000005555555500000000-|
-2222222222225555222222222222555500000000000000005555555500000000-|



2:59


-12-------12-------------12-------12-----------------------------|
----12-15----------12-15----12-15----------15-12---12/13---10----|
----------------------------------------14-----------------------|
----------------14-------------------14--------------------------|
-----------------------------------------------------------------|
-----------------------------------------------------------------|


3:06
                                    __       __
---------------------------__------/  \-----/  \------__-------__----|
-10/12--------------------/  \---10-12-10-12-13-12---/  \-----/  \---|
-------12-11----------9-11-12-11-------------------11-12-11-12-14-12-|
-----------------9-12------------------------------------------------|
--------------12-----------------------------------------------------|
---------------------------------------------------------------------|
               *  * *

3:11
            __
-----------/  \---------^------------------__-----------|
---------12-13-12-----12-13-10------------/  \----------|
-12~--------------12--------------------12-14-12-11-12--|
--------------------------------------------------------|
--------------------------------------------------------|
--------------------------------------------------------|






-------------------------_____--------------------_____--------|
------------------------)--|-(--------------------)--|-(-------|
-/9~~-----------------10--10----9~~-------------10--10----7~~--|
---------------------------------------------------------------|
---------------------------------------------------------------|
---------------------------------------------------------------|



--------------------------------------|
-------)------)-(---------------------|
-----10-----10----7~~~-----7/9-9~~----|
--------------------------------------|
--------------------------------------|
--------------------------------------|






-------------------------_____--------------------_____--------|
------------------------)--|-(--------------------)--|-(-------|
-/9~~-----------------10--10----9~~-------------10--10----7~~--|
---------------------------------------------------------------|
---------------------------------------------------------------|
---------------------------------------------------------------|



--------------------------------------|
-------)------)-(---------------------|
-----10-----10----7~~~-----7/9-9~~----|
--------------------------------------|
--------------------------------------|
--------------------------------------|



pm'd throughout

--------------------------------------------------------|
--------------------------------------------------------|
--------------------------------------------------------|
---5------5------5------5------5------5-----5-----9-5---|
-----7------7------7------7------7------7-----7-------5-|
-------9------9------9------9------9------9-----9-------|


--------------------------------------------------------|
--------------------------------------------------------|
--------------------------------------------------------|
---5------5------5------5------5------5-----5-----9-5---|
-----7------7------7------7------7------7-----7-------5-|
-------9------9------9------9------9------9-----9-------|



------------------------------------------------|
------------------------------------------------|
------------------------------------------------|
-4-----4-----4-----4-----4-----4-----4----------|
---5-----5-----5-----5-----5-----5-----5--------|
-----7-----7-----7-----7-----7-----7-----7------|



------------------------------|
------------------------------|
-4-----4-----4------4---------|
---5-----5-----5------5-------|
-----5-----5-----5------5-----|
------------------------------|


------------------------------|
------------------------------|
------------------------------|
-4-----4-----4-----4----------|
---5-----5-----5-----5--------|
-----7-----7-----7-----7------|
Добавлено: 28.12.2013
Вам также может быть интересно:
Другие материалы по этой песне:

Страница создана 28.12.2013
http://primanota.ru/devildriver/sail-chords.htm
Привет, Гость.
Предлагаем пройти революционный курс по гитаре.
Подарок от PrimaNota.Ru, забирай!