PrimaNota.ru - самый крупный в мире бесплатный архив песенных текстов, аккордов, табулатур и нот


Devildriver - Devils Son - текст песни, таба, бас-таба, видео

Регистрация Запомнить меня
Войти через:  Facebook Google Twitter Vk Yandex Mail.ru

Devildriver - Devils Son - текст песни, таба, бас-таба, видео

Печатать
Просмотров: 658
Уроки эстрадного вокала в Санкт-Петербурге
I love this song. It's pretty easy to play and sounds good when played in Drop B tuning (BF#BEG#C#)


Intro:
|-------------------------|-----------------------|
|-------------------------|-----------------------|
|-------------------------|-----------------------|
|-0-0--0-0--0-0--0-0--0-0-|-0-0--0-0--0-0--0-0--0-|
|-0-0--0-0--0-0--0-0--0-0-|-0-0--0-0--0-0--0-0--0-|
|-0-0--0-0--0-0--0-0--0-0-|-0-0--0-0--0-0--0-0--0-|


Pre-Verse:-
Guitar 1:
|--------------------|
|-21\20\19\18--17h18-|
|--------------------|
|--------------------|
|--------------------|
|--------------------|


Guitar 2:
|--------------------|
|--------------------|
|--------------------|
|-0-0-0-1--0-0-0-0-3-|
|-0-0-0-1--0-0-0-0-3-|
|-0-0-0-1--0-0-0-0-3-|


Verse:
|----------------------|
|----------------------|
|----------------------|          Before the next section, the guys stop and
|-0-0-0-1--0-0-0-0-3-2-|          end on the 2nd to last chord (the 3's).
|-0-0-0-1--0-0-0-0-3-2-|
|-0-0-0-1--0-0-0-0-3-2-|


Pre-Chorus:
|----------------------|
|----------------------|
|----------------------|          Tremelo picking here might help but it's
|-0-0-0-1--0-0-0-0-3-2-|          ok to carry on the verse riff as normal.
|-0-0-0-1--0-0-0-0-3-2-|
|-0-0-0-1--0-0-0-0-3-2-|


Chorus:
|--------------------|
|--------------------|
|--------------------|
|-0-0-0-1--0-0-0-0-3-|
|-0-0-0-1--0-0-0-0-3-|
|-0-0-0-1--0-0-0-0-3-|

Breakdown:-
Riff 1:
|--------------|
|--------------|
|--------------|
|-0-1-0--0-1-2-|
|-0-1-0--0-1-2-|
|-0-1-0--0-1-2-|


Riff 2:
|--------------------------------------------------------------------|
|--------------------------------------------------------------------|
|--------------------------------------------------------------------|
|---------4---4-4----------3----3-3---------2---2-2----------1---1-1-|
|---------4---4-4----------3----3-3---------2---2-2----------1---1-1-|
|-0-0-0-0-4-0-4-4--0-0-0-0-3--0-3-3-0-0-0-0-2-0-2-2--0-0-0-0-1-0-1-1-|


Riff 3:
|------------|
|-9-8--12-11-|
|------------|          Tremelo pick here. Guitar 2 continues Riff 2.
|------------|
|------------|
|------------|

Story:
Intro
Pre-Verse
Verse
Pre-Chorus
Chorus
Verse
Pre-Chorus
Chorus
Breakdown: - Riff 1
           - Riff 2
           - Riff 3 (with Riff 2 in the background)
Chorus
Pre-Verse

Listen to the song for how many times you need to play everything. Rate it, enjoy it and 
playing! ROCK ON!!
Добавлено: 29.04.2012
Другие материалы по этой песне:
  • Аккорды и текст

Страница создана 29.04.2012
http://primanota.ru/devildriver/devils-son-chords.htm
Привет, Гость.
Предлагаем пройти революционный курс по гитаре.
Подарок от PrimaNota.Ru, забирай!