PrimaNota.ru - самый крупный в мире бесплатный архив песенных текстов, аккордов, табулатур и нот


Devildriver - Bound By The Moon - текст песни, таба, видео

Регистрация Запомнить меня
Войти через:  Facebook Google Twitter Vk Yandex Mail.ru

Devildriver - Bound By The Moon - текст песни, таба, видео

Печатать
Просмотров: 248
Уроки эстрадного вокала в Санкт-Петербурге
Tabbed by: Bubble Wrap

Bound By The Moon
DevilDriver
The Last Kind Words

Tuning: Drop C  -- C G C F A D

. - Palm Mute
h - Hammer-On
p - Pull-Off
~ - Let Ring
/ - Slide
b  Bend
^  Hold Bend

Ok this is my first submitted tab so its not perfect but yer ;)

|---------------------------------------------------------------------------|
|---------------------------------------------------------------------------|
|---------------------------------------------------------------------------|
|-----------------------3---------------------------------------------------|
|-7-7h11p7-12/--3-3h7p3---2---------3-3h5p3---------------------------------|
|0-------------0------------222-3-----------4-------------------------------| x3
 .             .            ... .

                                                  Guitar 1          Guitar 2
|-------------------------------------------|  |--------------|  |--------------|
|-------------------------------------------|  |--------------|  |--------------|
|-------------------------------------------|  |--------------|  |--------------|
|----------------------3--------------------|  |--------------|  |--------------|
|-7-7h11p7-12/--3-3h7p3--2---------3-3h5p3--|  |--------------|  |-111111111111-|
|0-------------0-----------222-3------------|  |-555555555555-|  |--------------|
 .             .           ... .


|---------------------------------------------------------------------------------------------|
|---------------------------------------------------------------------------------------------|
|---------------------------------------------------------------------------------------------|
|-------------------------2h3-3-----------------------7------------------------------x-x-7-8-7|
|------5-4-5--------------------3-1---------------------8-7-----------------5--8-7-8----------|

x3
             . . . . . .            . . . . . .              . . . . . .

(not sure if this is correct)
|-----------------------------------------------------|
|-----------------------------------------------------|
|-----------------------------------------------------|
|-5/7-7-5-5~----9/10-10--10-8~---------7----5555-7777-|
|-3/5-5-3-7~----7/8--8---10-8~-----------8--5555-7777-|
|------------------------10-8~----5h7-------5555-7777-|

 Guitar 1                                                    Guitar 2
|----------------------------------------------------|
|----------------------------------------------------|       (sorry i dont know what it is,
|----------------------------------------------------|       if some one could do that tab
|-77777777--8888--10101010--00000000--8888--10101010-|      for that, than that would be great)
|-55555555--8888--10101010--00000000--8888--10101010-|
|-----------8888--10101010--00000000--8888--10101010-|x2

|-----------------------------------------------|-------------------------------------------|
|-----------------------------------------------|-------------------------------------------|
|-----------------------------------------------|-------------------------------------------|
|----3-----------------3------------3-----------|-----3-----------------------------4-----3-|
|5-4---5-4---------4-5---5------4-5---5---------|-5-4---4-5---------------------------------|
|----------0000000---------0000----------000000-|-----------0000-0-1-4-3-0000-4-333---000---|
           .......         ....          ......             ....         ....   ...   ...

  (sorry dont know rest of the solo)
|----------------------------------------------------------13b15-15-15--16b17-16-------16-16b17n16|
|9b10-9-9------------------------------------------------------------------------18-17------------|
|---------9-12-10---9-10-12-10-9-10-10b12--12-14-15-14-15-----------------------------------------|
|-------------------------------------------------------------------------------------------------|
|-------------------------------------------------------------------------------------------------|
|-------------------------------------------------------------------------------------------------|

If some one can work on mine and do the rest of the solo and other little bits
than that would F**king rock!
thnx
Добавлено: 29.06.2012
Другие материалы по этой песне:
  • Аккорды и текст

Страница создана 15.03.2012
http://primanota.ru/devildriver/bound-by-the-moon-chords.htm
Привет, Гость.
Предлагаем пройти революционный курс по гитаре.
Подарок от PrimaNota.Ru, забирай!