PrimaNota.ru - самый крупный в мире бесплатный архив песенных текстов, аккордов, табулатур и нот


Devildriver - Bear Witness Onto - текст песни, таба, видео

Регистрация Запомнить меня
Войти через:  Facebook Google Twitter Vk Yandex Mail.ru

Devildriver - Bear Witness Onto - текст песни, таба, видео

Печатать
Просмотров: 161
Уроки эстрадного вокала в Санкт-Петербурге
Band: Devildriver
Album: The Fury Of Our Makers Hands
Song: Bear Witness Onto
Tabber: Tom 

Tuning: Drop B
Key:

. Palm mute
~ Hold note
/ String slide


Comments:
Love this song, the guitars sound really good and have developed well
from the first album. I had a lot of fun tabbing this. This song I would
suggest is for intermediate to advanced guitarists because it is very fast
paced. Listen very carefully to the song to get the timing correct.


Guitar 1 
(0.00- 0.04)
|-------------------------------------------------------------------|
|---------------10--------------------9-----------------------------|  
|----------------------------------------------------------8--------|  
|--10---10---10----10----10---10---10----10---10---10---10----10----|
|7------------------------------------------------------------------|
|7----7----7-----------7----7----7---------7----7----7--------------|

|-------------------------------------------------------------------|
|-------------------------------------------------------------------|  
|-------------------------------------------------------------------|  
|-------------------------------------------------------------------|
|11-11-11-10-10-10-8-8----------------------------------------------|
|-------------------------------------------------------------------|

Guitar 2
(0.04-0.04)
|-------------------------------------------------------------------|
|-------------------------------------------------------------------|  
|-------------------------------------------------------------------|  
|6-6-6-5-5-5-3-3----------------------------------------------------|
|6-6-6-5-5-5-3-3----------------------------------------------------|
|6-6-6-5-5-5-3-3----------------------------------------------------|
 . . . . . . . . 

Guitar 1
(0.04-0.09)
|---------------13--------------------12-------------------11-------| 
|-------------------------------------------------------------------|  
|-------------------------------------------------------------------|  
|--10---10---10----------10---10---10---------10---10---10----------|
|7------------------------------------------------------------------|
|7----7----7-----------7----7----7---------7----7----7--------------|
                 ~                     ~				~



|-------------------------------------------------------------------|
|-------------------------------------------------------------------|  
|-------------------------------------------------------------------|  
|-------------------------------------------------------------------|
|8-8-8-10-10-10-11--------------------------------------------------|
|-------------------------------------------------------------------|

Guitar 2
(0.08-0.09)
|-------------------------------------------------------------------|
|-------------------------------------------------------------------|  
|-------------------------------------------------------------------|  
|3-3-3-5-5-5-6------------------------------------------------------|
|3-3-3-5-5-5-6------------------------------------------------------|
|3-3-3-5-5-5-6------------------------------------------------------|
 . . . . . . .  

Guitar 1 
(0.09- 0.21)
|-------------------------------------------------------------------|
|---------------10--------------------9-----------------------------|  
|----------------------------------------------------------8--------|  
|--10---10---10----10----10---10---10----10---10---10---10----10----|
|7------------------------------------------------------------------|
|7----7----7-----------7----7----7---------7----7----7--------------|

|-------------------------------------------------------------------|
|-------------------------------------------------------------------|  
|-------------------------------------------------------------------|  
|-------------------------------------------------------------------|
|11-11-11-10-10-10-8-8----------------------------------------------|
|-------------------------------------------------------------------|

|-------------------------------------------------------------------| 
|-------------------------------------------------------------------|  
|---------------10--------------------9--------------------8--------|  
|--10---10---10----------10---10---10---------10---10---10----------|
|7------------------------------------------------------------------|
|7----7----7-----------7----7----7---------7----7----7--------------|
                 
|-------------------------------------------------------------------|
|-------------------------------------------------------------------|  
|-------------------------------------------------------------------|  
|-------------------------------------------------------------------|
|8-8-8-10-10-10-11-11-8-8-8-10-10-10-11-11-8-8-8-10-10-10-11-11-----|
|-------------------------------------------------------------------|

|-------------------------------------------------------------------|
|9-9-9-8-8-8-8-8----------------------------------------------------|  
|-------------------------------------------------------------------|  
|-------------------------------------------------------------------|
|-------------------------------------------------------------------|
|-------------------------------------------------------------------|




Guitar 2 
(0.09- 0.21)
|-------------------------------------------------------------------|
|---------------10--------------------9-----------------------------|  
|----------------------------------------------------------8--------|  
|--10---10---10----10----10---10---10----10---10---10---10----10----|
|7------------------------------------------------------------------|
|7----7----7-----------7----7----7---------7----7----7--------------|

|-------------------------------------------------------------------|
|-------------------------------------------------------------------|  
|-------------------------------------------------------------------|  
|-------------------------------------------------------------------|
|11-11-11-10-10-10-8-8----------------------------------------------|
|-------------------------------------------------------------------|

|-------------------------------------------------------------------| 
|-------------------------------------------------------------------|  
|---------------10--------------------9--------------------8--------|  
|--10---10---10----------10---10---10---------10---10---10----------|
|7------------------------------------------------------------------|
|7----7----7-----------7----7----7---------7----7----7--------------|

|-------------------------------------------------------------------|
|-------------------------------------------------------------------|  
|-------------------------------------------------------------------|  
|-------------------------------------------------------------------|
|8-8-8-10-10-10-11-11-8-8-8-10-10-10-11-11-3-3-3-5-5-5-6-6----------|
|-------------------------------------------------------------------|

|-------------------------------------------------------------------|
|-------------------------------------------------------------------|  
|-------------------------------------------------------------------|  
|-------------------------------------------------------------------|
|11-11-11-10-10-10-8-8----------------------------------------------|
|-------------------------------------------------------------------|

Guitar 1 & 2
(0.22-0.40)
|-------------------------------------------------------------------|
|-------------------------------------------------------------------|  
|-------------------------------------------------------------------|  
|---------------7------------------6--------------------------------|
|-----------------7------------------7----------------6-5-----------|
|7-10-7-10-7-10-----7-10-7-10-7-10-----7-10-7-10-7-10---------------|

|-------------------------------------------------------------------|
|-------------------------------------------------------------------|  
|-------------------------------------------------------------------|  
|-------------------------------------------------------------------|
|6-6-6-5-5-5-3-3----------------------------------------------------|
|6-6-6-5-5-5-3-3----------------------------------------------------|


|-------------------------------------------------------------------|
|-------------------------------------------------------------------|  
|-------------------------------------------------------------------|  
|-------------------------------------------------------------------|
|---------------7---------------------------------------------------|
|7-10-7-10-7-10---7-10-7-10-7-10-6-7-10-7-10-7-10-5-----------------|
		~		 ~ 		  ~ 

|-------------------------------------------------------------------|
|-------------------------------------------------------------------|  
|-------------------------------------------------------------------|  
|-------------------------------------------------------------------|
|3-3-3-5-5-5-6-6----------------------------------------------------|
|3-3-3-5-5-5-6-6----------------------------------------------------|X2

Both Repeat (0.22-0.40), then:
(0.40-0.43)
|-------------------------------------------------------------------|
|-------------------------------------------------------------------|  
|-------------------------------------------------------------------|  
|-------------------------------------------------------------------|
|3-3-3-5-5-5-6-6-3-3-3-5-5-5-6-6-6-6-6-5-5-5-3-3--------------------|
|3-3-3-5-5-5-6-6-3-3-3-5-5-5-6-6-6-6-6-5-5-5-3-3--------------------|


Guitar 1&2
(0.45-1:02)
|-------------------------------------------------------------------|
|-------------------------------------------------------------------|  
|-------------------------------------------------------------------|  
|-------------------------------------------------------------------|
|0-3-0-3-0-3-5---0-3-0-3-0-3-4---0-3-0-3-0-3-----3-3-3-1-1-1-3------|
|0-3-0-3-0-3---7-0-3-0-3-0-3---7-0-3-0-3-0-3-6-3-3-3-3-1-1-1-3------|


|-------------------------------------------------------------------|
|-------------------------------------------------------------------|  
|-------------------------------------------------------------------|  
|-------------------------------------------------------------------|
|0-3-0-3-0-3-6-0-3-0-3-0-3-5-0-3-0-3-0-5-3-3-3-3-1-1-1-3------------|
|0-3-0-3-0-3-6-0-3-0-3-0-3-5-0-3-0-3-0-5-3-3-3-3-1-1-1-3------------|X2
	   . .		 . .	       . .

Guitar 1&2
(1:03-1:22)
|-------------------------------------------------------------------|
|-------------------------------------------------------------------|  
|-------------------------------------------------------------------|  
|----------2-----------1---------------------5---5------------------|
|0-3-0-3-0---0-3-0-3-0---0-3-0-3-0-5-0-3-0-3-3-3-3-3----------------|
|0-3-0-3-0---0-3-0-3-0---0-3-0-3-0---0-3-0-3------------------------|X2
	   ^	       ^	               .   .

|-------------------------------------------------------------------|
|-------------------------------------------------------------------|  
|-------------------------------------------------------------------|  
|----------2-----------1---------------------5---5------------------|
|0-3-0-3-0---0-3-0-3-0---0-3-0-3-0-5-0-3-0-3-3-3-3-3----------------|
|0-3-0-3-0---0-3-0-3-0---0-3-0-3-0---0-3-0-3------------------------|
 . . . . . ^ . . . . . ^ . . . . .   . . . . . . . .		

|-------------------------------------------------------------------|
|-------------------------------------------------------------------|  
|-------------------------------------------------------------------|  
|----------2-----------1---------------------5---5---5---5----------|
|0-3-0-3-0---0-3-0-3-0---0-3-0-3-0-5-0-3-0-3-3-3-3-3-3-3-3-3--------|
|0-3-0-3-0---0-3-0-3-0---0-3-0-3-0---0-3-0-3------------------------|
 . . . . . ^ . . . . . ^ . . . . .   . . . . . . . .	

|-------------------------------------------------------------------|
|-------------------------------------------------------------------|  
|-------------------------------------------------------------------|  
|--------5----------------------------------------------------------|
|3-5-6-3-6-5-3-0------------------------------------------------|
|3-5-6---6-5-3-0------------------------------------------------|
 . . . . . . . . 
       

Guitar 1&2
(1.22-1.45)			
|-------------------------------------------------------------------|
|-------------------------------------------------------------------|  
|-------------------------------------------------------------------|  
|-------------------------------------------------------------------|
|0-0-6-5-3-0-0-3-5-6-0-0-6-5-3-3-5-0-4-0-3-0-2-0--------------------|
|0-0-------0-0-------0-0-------3------------------------------------|
                              . . . . . . . .

|-------------------------------------------------------------------|
|-------------------------------------------------------------------|  
|-------------------------------------------------------------------|  
|-------------------------------------------------------------------|
|0-0-6-5-3-0-0-3-5-6-0-0-6-5-3-3-5-0-4-0-3-0-2-0--------------------|
|0-0-------0-0-------0-0-------3------------------------------------|
                              . . . . . . . .

|-------------------------------------------------------------------|
|-------------------------------------------------------------------|  
|-------------------------------------------------------------------|  
|-------------------------------------------------------------------|
|5-0-4-0-3-0-2-0--5-0-4-0-3-0-2--0-2-3-0-4-0-5-0--------------------|
|----------------------------------------------0-/////--------------|
 . . . . . . . .  . . . . . . .  . . . . . . .

Repeat (0.22-1.22)

(3.07)

Guitar 1&2
(2.42-3.07)			
|-------------------------------------------------------------------|
|-------------------------------------------------------------------|  
|-------------------------------------------------------------------|  
|-------------------------------------------------------------------|
|0--6-5-3-0--3-5-6-0--6-5-3-3-5-0-4-0-3-0-2-0-----------------------|
|0--------0--------0--------3---------------------------------------|
                              . . . . . . . .

|-------------------------------------------------------------------|
|-------------------------------------------------------------------|  
|-------------------------------------------------------------------|  
|-------------------------------------------------------------------|
|0--6-5-3-0--3-5-6-0--6-5-3-3-5-0-4-0-3-0-2-0-----------------------|
|0--------0--------0--------3---------------------------------------|
                              . . . . . . . .

|-------------------------------------------------------------------|
|-------------------------------------------------------------------|  
|-------------------------------------------------------------------|  
|-------------------------------------------------------------------|
|5-0-4-0-3-0-2-0--5-0-4-0-3-0-2--0-2-3-0-4-0-5-0--------------------|
|----------------------------------------------0-/////--------------|
 . . . . . . . .  . . . . . . .  . . . . . . .

Guitar 1
(3.07-3.39)
|-------------------------------------------------------------------|
|-------------------------------------------------------------------|  
|-------------------------------------------------------------------|  
|-----------------------------------------------------6555----------|
|------------5-0-4-0-3-0-2-0-1-0-----------3----------5555----------|
|0-3-0-3-0-3---------------------0-22222222--33333333-6666----------|
                     . . . . . .                      ^--------------Guitar 2 Joins in

|-------------------------------------------------------------------|
|-------------------------------------------------------------------|  
|-------------------------------------------------------------------|  
|-6-5---6-6---6-----------------------------------------------------|
|-5-5-5-5-5-5-5-5-8-0-4-7-0-3-6-0-2-5-0-----------------------------|
|-6-6---6-6---6-----------------------------------------------------|X4
    .     .

Guitar 1&2
(3.39-4.03)			
|-------------------------------------------------------------------|
|-------------------------------------------------------------------|  
|-------------------------------------------------------------------|  
|-------------------------------------------------------------------|
|0-0-6-5-3-0-0-3-5-6-0-0-6-5-3-3-5-0-4-0-3-0-2-0--------------------|
|0-0-------0-0-------0-0-------3------------------------------------|
                              . . . . . . . .

|-------------------------------------------------------------------|
|-------------------------------------------------------------------|  
|-------------------------------------------------------------------|  
|-------------------------------------------------------------------|
|0-0-6-5-3-0-0-3-5-6-0-0-6-5-3-3-5-0-4-0-3-0-2-0--------------------|
|0-0-------0-0-------0-0-------3------------------------------------|
                              . . . . . . . .

|-------------------------------------------------------------------|
|-------------------------------------------------------------------|  
|-------------------------------------------------------------------|  
|-------------------------------------------------------------------|
|5-0-4-0-3-0-2-0--5-0-4-0-3-0-2--0-2-3-0-4-0-5-0--------------------|
|----------------------------------------------0--------------------|
 . . . . . . . .  . . . . . . .  . . . . . . .
Добавлено: 25.04.2012
Другие материалы по этой песне:
  • Аккорды и текст

Страница создана 25.04.2012
http://primanota.ru/devildriver/bear-witness-onto-chords.htm
Привет, Гость.
Предлагаем пройти революционный курс по гитаре.
Подарок от PrimaNota.Ru, забирай!