PrimaNota.ru - самый крупный в мире бесплатный архив песенных текстов, аккордов, табулатур и нот


Devildriver - These Fighting Words - текст песни, таба, видео

Регистрация Запомнить меня
Войти через:  Facebook Google Twitter Vk Yandex Mail.ru

Devildriver - These Fighting Words - текст песни, таба, видео

Печатать
Просмотров: 203
This is the solo For the song , if u know a better way to play it tell me 
                           Skater_boy210@yahoo.com
    h=hammer  p=pull off  s=slide    B=bend    "=tremolo

                                       


d|----------------------------------------------------------------|
a|----------------------------------------------------------------|
f|-------14s12s10-----9h10h12-----12-10-9h10s7-9h10-10-9--12-14---|
c|----------------------------------------------------------------|
g|----------------------------------------------------------------|
c|-0-12------------8----------------------------------------------|

d|----------------------------------------------------------------------------|
a|----------------------------------------------------------------------------|
f|-------14-12s14-14---12s10-12--10s12-------12s10-9---9s10-14s12--9s10--12s14|
c|-------------------------------------10s12----------------------------------|
g|----------------------------------------------------------------------------|
c|-0-12-----------------------------------------------------------------------|

d|---------------------------------------------------------------------------|
a|---------------------------------------------------------------------------|
f|---------------------------------------7-10s9-10s12----------7--12s10-12s14|
c|---------14--12---------12--10-------5---------------------5---------------|
g|---------------------8-------------3---------------------5-----------------|
c|-0--12------------8--------------3---------------------5-------------------|


d|-----------------------------------------------------------------------------|
a|-----------------------------------------------------------------------------|
f|---------------------------------------------14-12-14-------12B--12-10-12----|
c|------15s14-15----------------------------15----------7---7------------------|
g|---12----------12-8-12s15--13s12-13----13---------------8--------------------|
c|-0---------------------------------------------------------------------------|

d|------------------------------------------------------------|
a|------------------------------------------------------------|
f|---------------------------------14---12-----------6--------|
c|--15--15s14-15-14--12--12-14-15----------14-----------------|
g|------------------------------------------------------------|
c|------------------------------------------------------------|

d|-10B---------13-12----15----13-12-17----15----18----17-----17"--18"--12"--13"|
a|-------------------13----13----------18----17----17----15--------------------|
f|-----------------------------------------------------------------------------|
c|-----------------------------------------------------------------------------|
g|-----------------------------------------------------------------------------|
c|-----------------------------------------------------------------------------|


d|-12-13-12---------------------------------------------------------------------------|
a|----------15-17-15------------------------------------------------------------------|
f|-------------------14-15-14-12-14-12------------------------------------------------|
c|-------------------------------------15-17-15-14-12-14----15-17-15-15-14-15-12-14-12|
g|------------------------------------------------------------------------------------|
c|------------------------------------------------------------------------------------|


d|---------------------------------------------------------------------------------------|
a|---------------------------------------------------------------------------------------|
f|---------------------------------------------------------------------------------------|
c|-14-15--17-14----14----15--14--12--14--15--12------------------------------------------|
g|----------------------------------------------12-----15----17--15--14--14-15-14----15s-|
c|---------------------------------------------------------------------------------------|


d|---------------------------------------------------|
a|------------------18--17--15--17--18b----18--17--15|
f|--14--12--14--19-----------------------------------|
c|---------------------------------------------------|
g|--------------------------------------------------0|
c|--------------------------------------------------0|
Добавлено: 01.04.2012
Другие материалы по этой песне:

Страница создана 11.03.2012
http://primanota.ru/devildriver/these-fighting-words-chords.htm
Привет, Гость.
Предлагаем пройти революционный курс по гитаре.
Подарок от PrimaNota.Ru, забирай!