PrimaNota.ru - самый крупный в мире бесплатный архив песенных текстов, аккордов, табулатур и нот


Deftones - Pink Maggit - текст песни, таба, бас-таба, видео

Регистрация Запомнить меня
Войти через:  Facebook Google Twitter Vk Yandex Mail.ru

Deftones - Pink Maggit - текст песни, таба, бас-таба, видео

Печатать
Просмотров: 308
Уроки эстрадного вокала в Санкт-Петербурге
Авторы: Deftones

Author/Artist: Deftones
Title: Pink Maggit
Album: White Pony
Transcribed by: Kevin Quillen
Email: esp_jh2@hotmail.com

This song is tuned in CGCFAD. I freakin LOVE this song.

------------------------------------------------------------------------------
------------------------------------------------------------------------------
---------------------------------------------3--------------------------------
-----8------10-------7---5h7-7-8-7-4------------------------------------------
---8------8--------5--------------------1-------------------------------------
-8------0--------5--------------------1---------------------------------------
 Intro. Use a whammy/delay/reverb for best results                            

------------------------------------------------------------------------------
------------------------------------------------------------------------------
--------------------------------------------5^--------------------------------
-----8------10^-----7---5h7-7-8--7-4------------------------------------------
---8------8-------5---------------------1-------------------------------------
-8------0-------5---------------------1---------------------------------------
 Intro variation used at the end                                              

------------------------------------------------------------------------------
------------------------------------------------------------------------------
-10-10-10-10-10-10-10-10-10-10-10-10-10-10-10---------------------------------
-8--8--8--8--8--8--8--8--0--0--0--0--0--0--0----------------------------------
-8--8--8--8--8--8--8--8--0--0--0--0--0--0--0----------------------------------
-8--8--8--8--8--8--8--8--0--0--0--0--0--0--0----------------------------------
 Main riff. Full on distortion.                                               

------------------------------------------------------------------------------
------------------------------------------------------------------------------
-7-7-7-7-7-7-7-7-7-7--7-7-7-7-7-7-7-7-7-7-------------------------------------
-5-5-5-5-5-5-5-5-5-5--4-4-4-4-4-4-4-4-4-4-------------------------------------
-5-5-5-5-5-5-5-5-5-5--4-4-4-4-4-4-4-4-4-4-------------------------------------
-5-5-5-5-5-5-5-5-5-5--4-4-4-4-4-4-4-4-4-4-------------------------------------
 Continuation of riff. Repeat.                                                

------------------------------------------------------------------------------
------------------------------------------------------------------------------
-11/12-12-12-12-12/14-14-14-14-14/15------------------------------------------
-x-/x--x--x--x--x-/x--x--x--x--x-/x-------------------------------------------
-9-/10-10-10-10-10/12-12-12-12-12/13------------------------------------------
------------------------------------------------------------------------------
 Play on Guitar 2 behind main riff. End with the intro.                       

Добавлено: 04.04.2012
Другие материалы по этой песне:

Страница создана 21.02.2012
http://primanota.ru/deftones/pink-maggit-chords.htm
Привет, Гость.
Предлагаем пройти революционный курс по гитаре.
Подарок от PrimaNota.Ru, забирай!