PrimaNota.ru - самый крупный в мире бесплатный архив песенных текстов, аккордов, табулатур и нот


Deftones - Diamond Eyes - текст песни, таба, бас-таба, видео

Регистрация Запомнить меня
Войти через:  Facebook Google Twitter Vk Yandex Mail.ru

Deftones - Diamond Eyes - текст песни, таба, бас-таба, видео

Печатать
Просмотров: 718
Авторы: Deftones

Update :D
I updated the tab ALOT everything should sound dead on now please rate and comment 
the tab 08/28/2010

im only laying out the basic song riffs
tunning Standard B Seven-string Tune Everything to
F#,B,E,A,D,F#,B or use An 8 String Guitar
Or tune up 1 step :D
Intro and verse Riff
B |------------------------------|
F#|------------------------------|
D |------------------------------|
A |------------------------------|4x
E |------------------------------|
B |------------------------------|
F#|4^-44--4^-44--4^-44-4^-4^-4^--|
      ..     ..     ..            
Chorus
B |----------------------------------|
F#|----------------------------------|
D |----------------------------------|
A |----------------------------------|3x
E |666--666--444-4-------------------|
B |666--666--444-4-------------------|
F#|444--444--222-2p1-1p0-------------|

B |-----------------------------|
F#|-----------------------------|
D |-----------------------------|
A |-----------------------------|
E |666--666--444----------------|
B |666--666--444----------------|
F#|444--444--222----------------|
Verse
B |------------------------------|
F#|------------------------------|
D |------------------------------|
A |------------------------------|4x
E |------------------------------|
B |------------------------------|
F#|4^-44--4^-44--4^-44-4^-4^-4^--|
      ..     ..     ..            
Chorus
B |----------------------------------|
F#|----------------------------------|
D |----------------------------------|
A |----------------------------------|7x
E |666--666--444-4-------------------|
B |666--666--444-4-------------------|
F#|444--444--222-2p1-1p0-------------|

B |-----------------------------|
F#|-----------------------------|
D |-----------------------------|
A |-----------------------------|
E |666--666--444----------------|
B |666--666--444----------------|
F#|444--444--222----------------|

Breakdown and Ending Riff
B |-----------------------------------------|
F#|-----------------------------------------|
D |-----------------------------------------|
A |------------------------------------9\8--|2x
E |------------------------------------x-x--|
B |------------------------------------7\6--|
F#|2p1-1p0--2p1-1p0--2p1-1p0--2p1-1p0-------|

Interlude
B |------------------------------|
F#|------------------------------|
D |------------------------------|
A |------------------------------|2x
E |------------------------------|
B |------------------------------|
F#|4^-44--4^-44--4^-44--4^-44----|
      ..     ..     ..    ..
B |------------------------------|
F#|------------------------------|
D |------------------------------|
A |------------------------------|
E |------------------------------|
B |------------------------------|
F#|4^-4^-4^----------------------|

B |------------------------------|
F#|------------------------------|
D |------------------------------|
A |------------------------------|2x
E |------------------------------|
B |------------------------------|
F#|4^-44--4^-44--4^-44--4^44-----|
      ..     ..     ..    ..
B |------------------------------|
F#|------------------------------|
D |------------------------------|
A |------------------------------|
E |------------------------------|
B |------------------------------|
F#|4^-4^-4^----------------------|

Chorus
B |----------------------------------|
F#|----------------------------------|
D |----------------------------------|
A |----------------------------------|8x
E |666--666--444-4-------------------|
B |666--666--444-4-------------------|
F#|444--444--222-2p1-1p0-------------|

Breakdown and Ending Riff
B |-----------------------------------------|
F#|-----------------------------------------|
D |-----------------------------------------|
A |------------------------------------9\8--|4x
E |------------------------------------x-x--|
B |------------------------------------7\6--|
F#|2p1-1p0--2p1-1p0--2p1-1p0--2p1-1p0-------|

Just figure Out Where Everything Goes And You Can Play
Diamond Eyes By Deftones. And Buy The Album Please :D.
Добавлено: 08.03.2012
Другие материалы по этой песне:

Страница создана 22.02.2012
http://primanota.ru/deftones/diamond-eyes-chords.htm
Привет, Гость.
Предлагаем пройти революционный курс по гитаре.
Подарок от PrimaNota.Ru, забирай!