PrimaNota.ru - самый крупный в мире бесплатный архив песенных текстов, аккордов, табулатур и нот


Deftones - Rocket Skates - текст песни, таба, бас-таба, видео

Регистрация Запомнить меня
Войти через:  Facebook Google Twitter Vk Yandex Mail.ru

Deftones - Rocket Skates - текст песни, таба, бас-таба, видео

Печатать
Просмотров: 440
Авторы: Deftones

Song: Rocket Skates
Artist: Deftones

Before I start, this tab is almost entirely based on Ponte506s Youtube video that I
on sharinglungs.com. He figured out most of the riffs, Ive just tabbed it for a six string
added in a couple of changes, so you can thank him for this tabs existence. It still 
some work though so if you have any corrections comment away.

Chi, get well soon.


12/8

Riff 1
    e e e e e e e e e e e e
B|---------------------------|
G|---------------------------|
D|---------------------------|
A|---------------------------|
E|---------------------------|
B|--6p0-0-6p0-0-6p0-0-3p2p0--| x 2

    e e e e e e e e e e e e
B|---------------------------|
G|---------------------------|
D|---------------------------|
A|---------------------------|
E|---------------------------|
B|--6p0-0-6p0-0-6p0-0-3p2p0--| x 4

Riff 2.1
    Q  q  q  q  q  q     h + q  h + q
B|--------------------|---------0------|
G|--------------------|---------0------|
D|--------------------|---------0------|
A|--7--5--7--5--5--7--|--8-------------|
E|--7--5--7--5--5--7--|--8-------------|
B|--5--3--5--3--3--5--|--6-------------|
P.M.-  -  -  -  -  -

    h + q     h + q
G|------------0--------|
B|------------0--------|
D|------------0--------|
A|--(8)----------------|
E|--(8)----------------|
B|--(6)----------------|

Riff 2.2

    Q  q  q  q  q  q     q + e    Q + e   h + q
B|--------------------|-------------------0------|
G|--------------------|-------------------0------|
D|--------------------|-------------------0------|
A|--7--5--7--5--5--7--|--8------2----------------|
E|--7--5--7--5--5--7--|--8------2----------------|
B|--5--3--5--3--3--5--|--6------0----------------|
P.M.-  -  -  -  -  -

On this last bar Steph plays something at the end of the (I think middle) strings, Im
entirely sure what (Im working with mostly poor quality/incomplete videos). I suggest just
this though:

     h + q     h + q
B|---0---------0--------|
G|---0---------0--------|
D|---0---------0--------|
A|----------------------|
E|----------------------|
B|----------------------|

Riff 2.3

15/8
    Q  q  q  q  q  q     q + e
B|-----------------------------|
G|-----------------------------|
D|-----------------------------|
A|--7--5--7--5--5--7----8------|
E|--7--5--7--5--5--7----8------|
B|--5--3--5--3--3--5----6------|
P.M.-  -  -  -  -  -

Riff 3

12/8
     Q  e e e e q  e e e e   x3
B|---------------------------|o|
G|---------------------------|o|
D|---------------------------|o|
A|---5----------5------------|o|
E|---5----------5------------|o|
B|---3--3-3-3-3-3--3-3-3-3---|o|
P.M.    - - - -    - - - -

Im not certain about the last bar off this riff (3). Looking at the video it looks like
puts little variations in at various points, but they all seem to be some combination of
Im pretty sure its one of the following- my personal favourite is the first one 
but feel free to experiment, they all sound good.

Version 1                 Version 2
   e e e q  e e e e q  e   e e e q  e e e e q  e
B|-----------------------|-----------------------|
G|-----------------------|-----------------------|
D|-----------------------|-----------------------|
A|-----------------------|-----------------------|
E|-----------------------|-----------------------|
B|-6p0-5-0--0-6p0-5-0--0-|-6p0-3-0--0-6p0-3-0--0-|

Version 3                 Version 4
   e e e e e e e e e e e e   e e e e e e e e e e e e
B|-------------------------|-------------------------|
G|-------------------------|-------------------------|
D|-------------------------|-------------------------|
A|-------------------------|-------------------------|
E|-------------------------|-------------------------|
B|-6p0-5-3-2-0-6p0-5-3-2-0-|-6p0-6-3-2-0-6p0-6-3-2-0-|

Version 5
   e e e e e e e e e e e e
B|-------------------------|
G|-------------------------|
D|-------------------------|
A|-------------------------|
E|-------------------------|
B|-6p0-0-3-2-0-6p0-0-3-2-0-|

Riff 4
Same thing goes for the parts of this riff beginning with a 6p0, Ive tabbed out what I
it is below. Im more certain about this than Riff 3 however.

        (e)(q)(q)(q)(q)
   e e e q  e  q  q  q   x3  e e e e e e e e e e e e
B|-----------------------|o|-------------------------|
G|-----------------------|o|-------------------------|
D|-----------------------|o|-------------------------|
A|-----------------------|o|-------------------------|
E|----------2--2--2--2---|o|-------------------------|
B|-6p0-5-0--0--0--0--0---|o|-6p0-0-3-2-0-6p0-0-3p2p0-|
P.M.        -  -  -  -


Order:
Riff 1: x6
Riff 2.1
Riff 2.2
Riff 2.1
Riff 2.3
Riff 3: x4
Riff 4: x2
Riff 2.1
Riff 2.2
Riff 2.1
Riff 2.3
Riff 3: x4
Riff 4: x2
Riff 2.1
Riff 2.2
Riff 2.1
Riff 2.3 without the high strings played, followed by silence
Riff 3: x4
Riff 4: x2
Riff 2.1
Riff 2.2
Riff 2.1
Riff 2.2
Riff 2.1

At this point it may either go straight to 2.3 or 2.2, I dont know cause none of the
videos that Ive seen capture the ending – if someone knows then let me know, same goes for
corrections or if you know the specifics of Riff 3. I know the tabs a bit vague in 
but its my first attempt at tabbing anything and I think it pretty much nails it –
as said before, the credit is mainly due to Ponte506.
Добавлено: 10.05.2012
Другие материалы по этой песне:

Страница создана 11.03.2012
http://primanota.ru/deftones/rocket-skates-chords.htm
Привет, Гость.
Предлагаем пройти революционный курс по гитаре.
Подарок от PrimaNota.Ru, забирай!