PrimaNota.ru - самый крупный в мире бесплатный архив песенных текстов, аккордов, табулатур и нот


Deftones - Rats Rats Rats - текст песни, таба, бас-таба, видео

Регистрация Запомнить меня
Войти через:  Facebook Google Twitter Vk Yandex Mail.ru

Deftones - Rats Rats Rats - текст песни, таба, бас-таба, видео

Печатать
Просмотров: 250
Авторы: Deftones

Artist: Deftones
Song: Rats!Rats!Rats!
Tuning: 7 string tuned to F#,C#,F#,B,E,G#,C#

Intro (those are 11's not 1's)
|-----------------------------------------|
|-----------------------------------------|
|-----------------------------------------|
|-11-11-11-11-11-11-11111111-11111111-11--|
|-9--9--9--9--9--9--9-9-9-9--9-9-9-9--9---|
|-9--9--9--9--9--9--9-9-9-9--9-9-9-9--9---|
|-9--9--9--9--9--9--9-9-9-9--9-9-9-9--9---|

Intro Cont.
|-------------------------------------------------------------------------------|
|-------------------------------------------------------------------------------|
|-------------------------------------------------------------------------------|
|-11111111-11111111-11-11111111-11111111-11--11111111-11111111-11---------------|
|-9-9-9-9--9-9-9-9--9--9-9-9-9--9-9-9-9--9---9-9-9-9--9-9-9-9--9----------------|
|-9-9-9-9--9-9-9-9--9--9-9-9-9--9-9-9-9--9---9-9-9-9--9-9-9-9--9--3-6-5---------|
|-9-9-9-9--9-9-9-9--9--9-9-9-9--9-9-9-9--9---9-9-9-9--9-9-9-9--9--------5-0-5-3*|

Verse
|--------------------------------------------|
|--------------------------------------------|
|--------------------------------------------|
|-11111111-11111111-11--11111111-11111111-11-|
|-9-9-9-9--9-9-9-9--9---9-9-9-9--9-9-9-9--9--|
|-9-9-9-9--9-9-9-9--9---9-9-9-9--9-9-9-9--9--|
|-9-9-9-9--9-9-9-9--9---9-9-9-9--9-9-9-9--9--|

Verse Variation (listen to the song, you'll hear it)
|--------------------------------------------|
|--------------------------------------------|
|-12121212-12121212-12--12121212-12121212-12-|
|-11111111-11111111-11--11111111-11111111-11-|
|-9-9-9-9--9-9-9-9--9---9-9-9-9--9-9-9-9--9--|
|-9-9-9-9--9-9-9-9--9---9-9-9-9--9-9-9-9--9--|
|-9-9-9-9--9-9-9-9--9---9-9-9-9--9-9-9-9--9--|

End of Verse
|------------|
|------------|
|-6--66--6---|
|-5--55--5---|
|-5--55--5---|
|-5--55--5---|
|-5--55--5---|

Pre Chorus (I think) (12's and 10's)
|-------------------------------------------------|
|-------------------------------------------------|
|-------------------------------------------------|
|-12--121212--12--121212--12--121212--12--121212--|
|-10--101010--10--101010--10--101010--10--101010--|
|-8---8-8-8---8---8-8-8---8---8-8-8---8---8-8-8---|
|-------------------------------------------------|

Pre Chorus Cont.
|-------------------------------------------------|
|-------------------------------------------------|
|-------------------------------------------------|
|-10--101010--10--101010--10--101010--10--101010--|
|-8---8-8-8---8---8-8-8---8---8-8-8---8---8-8-8---|
|-6---6-6-6---6---6-6-6---6---6-6-6---6---6-6-6---|
|-------------------------------------------------|

Chorus (1's and 0's)
|------------------------------------------|
|------------------------------------------|
|------------------------------------------|
|------------------------------------------|
|------------------------------------------| |----------------------------------000-000-|
|-1110--0--111110--1110--0--111111-000-000-|
palm mute                          ... ...

Pre Bridge
|-----------------------------------------------------|
|-----------------------------------------------------|
|-----------------------------------------------------|
|-----------------------------------------------------|
|-----------------------------------------------------|
|-000-000-000--000-000-000--000-000-000--000--000-000-|
|-000-000-000--000-000-000--000-000-000--000--000-000-|
pm... ... ...  ... ... ...  ... ... ...  ...  ... ...

Bridge
|------------------|
|------------------|
|------------------|
|------------------|  repeated multiple times and then
|------------------|
|------------------|
|-6655446655446655-|
pm................

Bridge Cont.
|-----------------|
|-----------------|
|-----------------|
|-----------------|   repeated until you go back into the verse
|-7--5--8--7--5-8-|
|-5--3--6--5--3-6-|
|-----------------|

There you go. That's pretty much the whole song. It's kind of rough but I think you'll get the idea.
Добавлено: 13.06.2012
Другие материалы по этой песне:

Страница создана 29.02.2012
http://primanota.ru/deftones/rats-rats-rats-chords.htm
Привет, Гость.
Предлагаем пройти революционный курс по гитаре.
Подарок от PrimaNota.Ru, забирай!