PrimaNota.ru - самый крупный в мире бесплатный архив песенных текстов, аккордов, табулатур и нот


Deftones - Digital Bath - аккорды и текст, таба, бас-таба, видео

Регистрация Запомнить меня
Войти через:  Facebook Google Twitter Vk Yandex Mail.ru

Deftones - Digital Bath - аккорды и текст, таба, бас-таба, видео

Печатать
Просмотров: 717
Авторы: Deftones

Digital Bath
Deftones
		   Digital Bath  By Deftones (c)2000

Tabs written by L.Steiner
lsteiner@hotmail.com

Dropped a whole step to D
then Dropped D Tuning

C,G,C,F,A,D,

TAB  NOTATION  KEY

W = Slide
X  = Mute
H = Hold
^  = Bend
*  = Repeat


VERSE I

 D|--------------------||--------------------------------|
 A|--------------------||--------------------------------|
 F|*--6-6-6-6-6-6-6-0-*||*-11-11---W--14-14--W--17-16---*|
 C|*--4-0-4-0-4-0-4-0-*||*--X--X---W---X--X--W---X--X---*|
 G|---4-0-4-0-4-0-4-0--||---9--9---W--12-12--W--15-14----|
 C|---4-0-4-0-4-0-4-0--||---0--0---0--0--0---0---0--0----|
    "You Move Like..."     "We are  Downstairs...."

 D|------------------------------------|
 A|------------------------------------|
 F|-6-6-6-6-6-6-6-6---0-4--4^0-4-4--4^0|
 C|-0-4-0-4-0-4-0-4---0-2--H-H-0-2--H-H|
 G|-0-4-0-4-0-4-0-4---0-2--H-H-0-2--H-H|
 C|-0-4-0-4-0-4-0-4---0-2--H-H-0-2--H-H|
   "Can see new.."    "Breakaway..."


CHORUS I
 D|-----------------------|
 A|-----------------------|
 F|-6-6-6-6-6-6-6-6---0-2-|
 C|-0-4-0-4-0-4-0-4---0-0-|
 G|-0-4-0-4-0-4-0-4---0-0-|
 C|-0-4-0-4-0-4-0-4---0-0-|
  "LIKE MORE!!!..Tonight..I"




VERSE II
 D|--------------------|---------------------------------|
 A|--------------------|---------------------------------|
 F|---6-6-6-6-6-6-6-0--|*--11-11---W--14-14--W--17-16---*|
 C|---4-0-4-0-4-0-4-0--|*---X--X---W---X--X--W---X--X---*|
 G|---4-0-4-0-4-0-4-0--|----9--9---W--12-12--W--15-14----|
 C|---4-0-4-0-4-0-4-0--|----0--0---0--0--0---0---0--0----|
   "You make the..."     "You taste foreign.."

 D|-------------------------------------|
 A|-------------------------------------|
 F|-6-6-6-6-6-6-6-6---0-4--4^0--4-4--4^0|
 C|-0-4-0-4-0-4-0-4---0-2--H-H--0-2--H-H|
 G|-0-4-0-4-0-4-0-4---0-2--H-H--0-2--H-H|
 C|-0-4-0-4-0-4-0-4---0-2--H-H--0-2--H-H|
    "And I know..."  ..."Away, Cause tonight.."


CHORUS II
 D|------------------------------------------------|
 A|------------------------------------------------|
 F|-6-6-6-6-6-6-6-6----4--H--4^0----0--4--H--4^0---|
 C|-0-4-0-4-0-4-0-4----2--H--H-H----0--2--H--H-H---|
 G|-0-4-0-4-0-4-0-4----2--H--H-H----0--2--H--H-H---|
 C|-0-4-0-4-0-4-0-4----2--H--H-H----0--2--H--H-H---|
    "Like More.....    I feel like more..."

 D|-----------------------|
 A|-----------------------|
 F|-6-6-6-6-6-6-6-6---0-2-|
 C|-0-4-0-4-0-4-0-4---0-0-|
 G|-0-4-0-4-0-4-0-4---0-0-|
 C|-0-4-0-4-0-4-0-4---0-0-|
   "FEEL LIKE MORE!!!..Tonight..."





VERSE III

 D|----------------------|---------------------------|
 A|----------------------|---------------------------|
 F|*--6-6-6-6-6-6-6--0--*|-4--H--4^0----0--4--H--4^0-|
 C|*--4-0-4-0-4-0-4--0--*|-2--H--H-H----0--2--H--H-H-|
 G|---4-0-4-0-4-0-4--0---|-2--H--H-H----0--2--H--H-H-|
 C|---4-0-4-0-4-0-4--0---|-2--H--H-H----0--2--H--H-H-|
 "You Breathed...."       "And tonight I feel, Feel"



CHORUS III

 D|-------------------------------------------------------------------------------|
 A|-------------------------------------------------------------------------------|
 F|-6-6-6-6-6-6-6-6---0-11-11---W--14-14--W--17-16---0-11-11---W--14-14--W--17-16-|
 C|-0-4-0-4-0-4-0-4---0--X--X---W---X--X--W---X--X---0--X--X---W---X--X--W---X--X-|
 G|-0-4-0-4-0-4-0-4---0--9--9---W--12-12--W--15-14---0--9--9---W--12-12--W--15-14-|
 C|-0-4-0-4-0-4-0-4---0--0--0---0--0--0---0---0--0---0--0--0--0--0---0---0---0--0-|
 "FEEL LIKE MORE!!!...Tonight,              I feel like..."


 D|---------------------------------------------------------------------|
 A|---------------------------------------------------------------------|
 F|-6-6-6-6-6-6-6-6----4--H--4^0----0--4--H--4^0----6-6-6-6-6-6-6--6-0--|
 C|-0-4-0-4-0-4-0-4----2--H--H-H----0--2--H--H-H----4-0-4-0-4-0-4--4-0--|
 G|-0-4-0-4-0-4-0-4----2--H--H-H----0--2--H--H-H----4-0-4-0-4-0-4--4-0--|
 C|-0-4-0-4-0-4-0-4----2--H--H-H----0--2--H--H-H----4-0-4-0-4-0-4--4-0--|
  "FEEL LIKE MORE!!      I feel  like more      FEEL LIKE MORE!!, Tonight..".end





"Lyrics" for Digital Bath

VS I
You move, Like I want to.
To see, Like your eyes do.
We are, Downstairs.
Where no one can see,
New life, Break away,
Cuase tonight,

CH I
I feel like more!!!
Tonight I....



VS II
You make, The water warm,
You taste foreign.
And I know, You can see the cord,
Breakaway,
Cause tonight,

CH II
I feel like more!!!
Tonight I feel like more,
FEEL LIKE MORE!!!
Tonight....



VS III
You breathed, And then you stopped,
I breathed, And dried you off.
And tonight I feel

CH III
FEEL LIKE MORE!!
Tonight I feel like,
FEEL LIKE MORE!!!
Tonight I Feel Like More.
FEEL LIKE MORE!!!!
Tonight......     
Добавлено: 17.06.2013
Другие материалы по этой песне:

Страница создана 24.02.2012
http://primanota.ru/deftones/digital-bath-chords.htm
Привет, Гость.
Предлагаем пройти революционный курс по гитаре.
Подарок от PrimaNota.Ru, забирай!