PrimaNota.ru - самый крупный в мире бесплатный архив песенных текстов, аккордов, табулатур и нот


Deftones - Xerces - текст песни, таба, бас-таба, видео

Регистрация Запомнить меня
Войти через:  Facebook Google Twitter Vk Yandex Mail.ru

Deftones - Xerces - текст песни, таба, бас-таба, видео

Печатать
Просмотров: 424
Tabbed by Devin Davis
Awesome song on Deftones new album "Saturday Night Wrist"
Tuned A Half step down Drop D
This is how i play it on a 6 string guitar.

Verse
|------------------------------------------------------------------------------------------------|
|------------------------------------------------------------------------------------------------|
|----13----13----13----13----13----13----13----13----11----11----11----11----11----11----11----11|
|-16----16----16----16----12----12----12----12----11----11----11----11----11----11----11----11---|  
|------------------------------------------------------------------------------------------------|
|------------------------------------------------------------------------------------------------|


Chorus
|-------------------|
|-------------------|
|-------8-----------|
|-4-----8-x8--8-----|
|-4-x8--6-----8-x16-|
|-4-----------8-----|


Ending
|-----------------------------|
|-11-12-11--9-11--9--7--6-----|
|--x--x--x--x--x--x--x--x-----|
|--8--9--8--6--8--6--4--3--8--|
|--------------------------8--|
|--------------------------8--|

Hope you like it!
If your have any questions, e-mail me at crayola_22_88@yahoo.com
Добавлено: 27.03.2012
Другие материалы по этой песне:

Страница создана 04.03.2012
http://primanota.ru/deftones/xerces-chords.htm
Привет, Гость.
Предлагаем пройти революционный курс по гитаре.
Подарок от PrimaNota.Ru, забирай!