PrimaNota.ru - самый крупный в мире бесплатный архив песенных текстов, аккордов, табулатур и нот


Deftones - Passenger - аккорды и текст, таба, бас-таба, видео

Регистрация Запомнить меня
Войти через:  Facebook Google Twitter Vk Yandex Mail.ru

Deftones - Passenger - аккорды и текст, таба, бас-таба, видео

Печатать
Просмотров: 533
Авторы: Deftones, Maynard James Keenan

Passenger
Deftones
		   tuning= CGCFAD
*=harmonics

riff 1
D----------------------------------------------------------------
A---------------------------------------------------------------
F---------------------------------------------------------------
C----------7--7-7---------5--5-5---------4--4-4---------4--4-4--
G---------------------------------------------------------------
D--4-44-44--4-----4-44-44--4-----4-44-44--4-----4-44-44--4------

.............................................

riff 2
all harmonics
D---------------------------------
A-----------------------7---------
F---------------------------5-----
C----------5----------------------  repeat
G------4--------------------------
C--4---------------4--------------

.............................................

riff 3
"driiive faaaaster"
D---------------------------------------------
A---------------------------------------------
F--9999999999999999999910/9910/910/910/9------
C---------------------------------------------
G--777777777777777777778-/778-/78-/78-/7------
Cm-0000000000000000000000000000000000000------

.............................................

riff 1 "go and go ang go just..."
D----------------------------------------------------------------
A---------------------------------------------------------------
F---------------------------------------------------------------
C--4-44-44-7--7-7-4-44-44-5--5-5-4-44-44-4--4-4-4-44-44-4--4-4--
G--4-44-44--4-----4-44-44--4-----4-44-44--4-----4-44-44--4------
D--4-44-44--4-----4-44-44--4-----4-44-44--4-----4-44-44--4------

.............................................

breakdown

D---------------------------------------
A---------------------------------------
F--6-6-6-6-----------6-6-6-6--6-6-6-6---
C--4-4-4-4--7-7-7-7--4-4-4-4--4-4-4-4---
G--4-4-4-4--4-4-4-4--4-4-4-4--4-4-4-4^--
C--4-4-4-4--4-4-4-4--4-4-4-4--4-4-4-43--

D-----------------------------------------
A-----------------*---------*-------------
F--------*--------4--------2.6------------
C--4-4-4-5--4-4-4-4--4-4-4-2.6--4-4-4-4---
G--4-4-4----4-4-4-4--4-4-4-2.6--4-4-4-4^--
C--4-4-4----4-4-4----4-4-4------4-4-4-43--

D-----------------------------------------
A-----------------------------------------
F--------*--------*---------*-------------
C--4-4-4-5--4-4-4-4--4-4-4-2.6--4-4-4-4---
G--4-4-4----4-4-4-4--4-4-4-2.6--4-4-4-4^--
C--4-4-4----4-4-4----4-4-4------4-4-4-43--
.............................................

all harmonics
D------------------------------------
A-----------------------7------------
F---------------------------5--------
C----------5-------------------------
G------4-----------------------------
C--4---------------4-----------------

for that high pitched "feedbacky" noise that's insterted around here, hit all strings above the first fret

all harmonics
D--------------------------------------------------------
A--------------------------------------------------------
F--------------------------------------------------------
C----------5-----------5--------------5-----------5------
G--------4-----4-5---4---4----------4-----4-5---4---4----
C----4-------------------------4-------------------------

.............................................

D---------------------------------------------
A---------------------------------------------
F--9999999999999999999910/9910/910/910/9------
C--------------------------------------------- x2
G--777777777777777777778-/778-/78-/78-/7------
Cm-0000000000000000000000000000000000000------

end on
C-------
G-------
C--6----
C--5----
G--5----
C--5----

.............................................

outro
harmonics
D-----------------------------
A-----------------------------
F-----------------------------
C----------5----------5-------  repeat
G--------4---4--5---4---4-----
C---4-------------------------     
Добавлено: 13.10.2013
Другие материалы по этой песне:

Страница создана 25.03.2012
http://primanota.ru/deftones/passenger-chords.htm
Привет, Гость.
Предлагаем пройти революционный курс по гитаре.
Подарок от PrimaNota.Ru, забирай!