PrimaNota.ru - самый крупный в мире бесплатный архив песенных текстов, аккордов, табулатур и нот


Deftones - Riviere - текст песни, таба, бас-таба, видео

Регистрация Запомнить меня
Войти через:  Facebook Google Twitter Vk Yandex Mail.ru

Deftones - Riviere - текст песни, таба, бас-таба, видео

Печатать
Просмотров: 338
Авторы: Deftones

-------------------------------------------------------------------------------
Rivière- Deftones
-------------------------------------------------------------------------------
Tabbed by: Cyrus

Tuning: Ab,Eb,Ab,Db,Gb,Bb,Eb
This is the gorgeos album ender for Saturday Night Wrist I'm not exactly sure how the 
recorded it, but I tabbed it for one 7 string guitar, they might have used 2 guitars

Listen to song for timing (the number of times you strum each chord isn't exact so listen)

Most of the song can be played with a 6 string tuned flat a half step


Riff 1 (intro)
Don't hit the Bb string or the Eb string, on this part, it sounds real shitty if you do.
(on the first chord accent the 5 after the first strum)
eb|------------------------------------------------|
Bb|------------------------------------------------|
Gb|---10--10--10----13--13--13--5--5--5--5--5--5---|
Db|---11--11--11----x---x---x---x--x--x--x--x--x---|
Ab|---11--11--11----11--11--11--3--3--3--3--3--3---|
Eb|---9---9---9------------------------------------|
Ab|------------------------------------------------|

Riff 2
eb|-----------------------------------------|
Bb|-----------------------------------------|
Gb|-----------------------------------------|
Db|-----------------------------------------|
Ab|--------------8b9------------8-----------|
Eb|---------------------------------9-------|
Ab|----6---6-----------6---6----------------|

(altered version of riff 2) sometimes he throws that note in
eb|-----------------------------------------|
Bb|-----------------------------------------|
Gb|-----------------------------------------|
Db|-----------------------------------------|
Ab|--------------8b9------------8-----------|
Eb|---------------------------------9----4--|
Ab|----6---6-----------6---6----------------|


Riff 3
eb|--------------------------------------------------------------------|
Bb|--------------------------------------------------------------------|
Gb|---13--13--13--13--13--13--13--13---12--12--12--12--12--12--12--12--|
Db|---x---x---x---x---x---x---x---x----x---x---x---x---x---x---x---x---|
Ab|---11--11--11--11--11--11--11--11---10--10--10--10--10--10--10--10--|
Eb|--------------------------------------------------------------------|
Ab|--------------------------------------------------------------------|

eb|----------------------------------------------------|
Bb|----------------------------------------------------|
Gb|----5--5--5--5--5--5--5--5--5--5--5--5--5--5--5--5--|
Db|----x--x--x--x--x--x--x--x--x--x--x--x--x--x--x--x--|
Ab|----3--3--3--3--3--3--3--3--3--3--3--3--3--3--3--3--|
Eb|----------------------------------------------------|
Ab|----------------------------------------------------|

Riff 4 listen for rhythm
eb|-----------------------------|
Bb|-----------------------------|
Gb|-----------------------------|
Db|-----------------------------|
Ab|---6--6--6--6---6--7--7--7---|
Eb|---6--6--6--6---6--7--7--7---|
Ab|---6--6--6--6---6--7--7--7---|

Riff 5 (outro) slow
eb|------------------------|
Bb|---6-------------6------|
Gb|---6------5------6------|
Db|---6------x------6------|
Ab|---4------3------4------|
Eb|---4-------------4------|
Ab|---4-------------4------|

Riff 1 x6
Riff 2 x2
Riff 1 x4
Riff 2 x4
Riff 3 x3
Riff 2 x4
(heavier)Riff 3 x4
Riff 4 x12
Riff 1 x6
Riff 2 x4

| /  slide up
| \  slide down
| h  hammer-on
| p  pull-off
| ~  vibrato
| +  harmonic
| x  Mute note
===============================================================================
Добавлено: 12.03.2012
Другие материалы по этой песне:

Страница создана 12.03.2012
http://primanota.ru/deftones/riviere-chords.htm
Привет, Гость.
Предлагаем пройти революционный курс по гитаре.
Подарок от PrimaNota.Ru, забирай!