PrimaNota.ru - самый крупный в мире бесплатный архив песенных текстов, аккордов, табулатур и нот


Deftones - Goon Squad - текст песни, таба, видео

Регистрация Запомнить меня
Войти через:  Facebook Google Twitter Vk Yandex Mail.ru

Deftones - Goon Squad - текст песни, таба, видео

Печатать
Просмотров: 386
Уроки эстрадного вокала в Санкт-Петербурге
Авторы музыки: Deftones
Авторы текста: Chino Moreno
-------------------------------------------------------------------------------
                                                     GOON SQUAD - Deftones
-------------------------------------------------------------------------------

THIS TAB IS TO BE USED AS A GUIDELINE AND IS IN NO WAY 100% ACCURATE

Tabbed by: desertscoldmoon
Tuning: E-B-E-A-D-G-B-E

E|-------------------------|
B|----7-7------------------|
G|-6--6-6--6-6br-----------|
D|-7--7-7--7-7---7-7-7-7-7-|
A|-5-------5-5---5-5-5-5-5-| x3
E|-------------------------|
B|-------------------------|
E|-------------------------|


E|-----------------------|
B|-----------------------|
G|-----------------------|
D|-4--4-4--4-4br---4-4-4-|
A|-2--2-2--2-2----2-2--2-| x1
E|-0--0-0--0-0----0-0--0-|
B|-----------------------|
E|-----------------------|


E|-------------------------|
B|----7-7------------------|
G|-6--6-6--6-6br-----------|
D|-7--7-7--7-7---7-7-7-7-7-|
A|-5-------5-5---5-5-5-5-5-| x2
E|-------------------------|
B|-------------------------|
E|-------------------------|


E|-----------------------|
B|-----------------------|
G|-----------------------|
D|-4--4-4--4-4br---4-4-4-|
A|-2--2-2--2-2----2-2--2-| x1
E|-0--0-0--0-0----0-0--0-|
B|-----------------------|
E|-----------------------|


START STRUMING THESE OUT:
E|-------------------------------|
B|----7-7------------------------|
G|-6--6-6--6-6br-6--6br-6--6br-6-|
D|-7--7-7--7-7---7--7---7--7---7-|
A|-5-------5-5---5--5---5--5---5-| x4
E|-------------------------------|
B|-------------------------------|
E|-------------------------------|


E|----------------------------|
B|----------------------------|
G|----------------------------|
D|----------------------------|
A|----------------------------| x8
E|----------------------------|
B|----------------------------|
E|-3-4p3-3-4p3-3-3-4p3-3-3-4b-|


SLIDE BACK DOWN TO 
VERSE RIFF ON THE 
LAST ONE
E|---------------|
B|---------------|
G|---------------|
D|-12------9-----|
A|-12------9-----| x2
E|-10--x8--7--x8-|
B|-10------7-----|
E|-10------7-----|


E|----------------------------|
B|----------------------------|
G|----------------------------|
D|----------------------------|
A|----------------------------| x4
E|----------------------------|
B|----------------------------|
E|-3-4p3-3-4p3-3-3-4p3-3-3-4b-|


E|---------------|
B|---------------|
G|---------------|
D|-12------9-----|
A|-12------9-----| x4
E|-10--x8--7--x8-|
B|-10------7-----|
E|-10------7-----|


E|--------|
B|--------|
G|--------|
D|-8------|
A|-8------| x1
E|-6--x32-|
B|-6------|
E|-6------|


E|---------------------------------------19t-|
B|-15t--17t-------------------------17t------|
G|-------------16tbr--12tbr----16t-----------|
D|-------------------------------------------|
A|-------------------------------------------| x1
E|-------------------------------------------|
B|-------------------------------------------|
E|-------------------------------------------|


E|----------------------------|
B|----------------------------|
G|----------------------------|
D|----------------------------|
A|----------------------------| x4
E|----------------------------|
B|----------------------------|
E|-3-4p3-3-4p3-3-3-4p3-3-3-4b-|


E|---------------|
B|---------------|
G|---------------|
D|-12------9-----|
A|-12------9-----| x4
E|-10--x8--7--x8-|
B|-10------7-----|
E|-10------7-----|


E|-----------------------------------------------|
B|-----------------------------------------------|
G|-----------------------------------------------|
D|-----------------------------------------------|
A|-----------------------------------------------| x3
E|-6-6----------------------6-6------------------|
B|-6-6----------------------6-6------------------|
E|-6-6-6\5-5\3-3\1-1h3p1p0--6-6--6\5-5\3-3\1-1h3-|


E|------------------|
B|------------------|
G|------------------|
D|-12~~~~~~~~-------|
A|-12~~~~~~~~-------| 
E|-10~~~~~~~~-----\-|
B|-10~~~~~~~~-----\-|
E|-10~~~~~~~~-----\-|


E|----------------------------|
B|----------------------------|
G|----------------------------|
D|----------------------------|
A|----------------------------| x8
E|----------------------------|
B|----------------------------|
E|-1-2p1-1-2p1-1-1-2p1-1-1-2b-|


E|---------------|
B|---------------|
G|---------------|
D|-12------9-----|
A|-12------9-----| x6
E|-10--x8--7--x8-|
B|-10------7-----|
E|-10------7-----|


E|-----------------------------------------------|
B|-----------------------------------------------|
G|-----------------------------------------------|
D|-----------------------------------------------|
A|-----------------------------------------------| x4
E|-6-6----------------------6-6------------------|
B|-6-6----------------------6-6------------------|
E|-6-6-6\5-5\3-3\1-1h3p1p0--6-6--6\5-5\3-3\1-1h3-|


E|------------|
B|------------|
G|------------|
D|-12~~~~~~~~-|
A|-12~~~~~~~~-| 
E|-10~~~~~~~~-|
B|-10~~~~~~~~-|
E|-10~~~~~~~~-|
Добавлено: 05.12.2013
Другие материалы по этой песне:
  • Аккорды и текст

Страница создана 15.09.2013
http://primanota.ru/deftones/goon-squad-chords.htm
Привет, Гость.
Предлагаем пройти революционный курс по гитаре.
Подарок от PrimaNota.Ru, забирай!