PrimaNota.ru - самый крупный в мире бесплатный архив песенных текстов, аккордов, табулатур и нот


Deftones - Romantic Dreams - текст песни, таба, видео

Регистрация Запомнить меня
Войти через:  Facebook Google Twitter Vk Yandex Mail.ru

Deftones - Romantic Dreams - текст песни, таба, видео

Печатать
Просмотров: 241
Уроки эстрадного вокала в Санкт-Петербурге
Авторы музыки: Deftones
Авторы текста: Chino Moreno
-------------------------------------------------------------------------------
                                                    ROMANTIC DREAMS - Deftones
-------------------------------------------------------------------------------

THIS TAB IS TO BE USED AS A GUIDELINE AND IS IN NO WAY 100% ACCURATE

Tabbed by: desertscoldmoon
Tuning: E-B-E-A-D-G-B-E

E|---------------------------------------------------|
B|---------------------------------------------------|
G|---------------------------------------------------|
D|---------------------------------------------------|
A|-----9-----9-----10-----10-----9-----9-----7-----7-| x8
E|-0-7---0-7---0-7----0-7----0-7---0-7---0-4---0-4---|
B|---------------------------------------------------|
E|---------------------------------------------------|


E|------------------------------------------------------------------------|
B|------------------------------------------------------------------------|
G|------------------------------------------------------------------------|
D|------------------------------------------------------------------------|
A|------------------------------------------------------------------------| x1
E|-0-2--5-2-5-2-5-2-5-2-5-2-5-2-5-2--0-2-3-2--5-2-5-2-5-2-5-2-5-2-5-2-5-2-|
B|------------------------------------------------------------------------|
E|------------------------------------------------------------------------|


E|---------------------------------------------------|
B|---------------------------------------------------|
G|---------------------------------------------------|
D|---------------------------------------------------|
A|-----9-----9-----10-----10-----9-----9-----7-----7-| x4
E|-0-7---0-7---0-7----0-7----0-7---0-7---0-4---0-4---|
B|---------------------------------------------------|
E|---------------------------------------------------|


E|-----------------------------------------------|
B|-----------------------------------------------|
G|-----------------------------------------------|
D|-----------------------------------------------|
A|-5-5--5--5-5--5--------------------------------| x3
E|-5-5--5--5-5--5--------------------------------|
B|-3-3--3--3-3--3--8-8-8-8-8\7-7-7-7\1-1-1-1b-1b-|
E|-----------------------------------------------|


E|-----------------------------------------------|
B|-----------------------------------------------|
G|-----------------------------------------------|
D|-----------------------------------------------|
A|-5-5--5--5-5--5--------------------------------| x1
E|-5-5--5--5-5--5--------------------------------|
B|-3-3--3--3-3--3--8-8-8-8-8\7-7-7-7\1-1-1-------|
E|-----------------------------------------------|


E|----------------------------------------------------------------------------|
B|----------------------------------------------------------------------------|
G|----------------------------------------------------------------------------|
D|----------------------------------------------------------------------------|
A|----------------------------------------------------------------------------| x1
E|-0-2-3-2--5-2-5-2-5-2-5-2-5-2-5-2-5-2--0-2-3-2--5-2-5-2-5-2-5-2-5-2-5-2-5-2-|
B|----------------------------------------------------------------------------|
E|----------------------------------------------------------------------------|


E|---------------------------------------------------|
B|---------------------------------------------------|
G|---------------------------------------------------|
D|---------------------------------------------------|
A|-----9-----9-----10-----10-----9-----9-----7-----7-| x4
E|-0-7---0-7---0-7----0-7----0-7---0-7---0-4---0-4---|
B|---------------------------------------------------|
E|---------------------------------------------------|


E|-----------------------------------------------|
B|-----------------------------------------------|
G|-----------------------------------------------|
D|-----------------------------------------------|
A|-5-5--5--5-5--5--------------------------------| x3
E|-5-5--5--5-5--5--------------------------------|
B|-3-3--3--3-3--3--8-8-8-8-8\7-7-7-7\1-1-1-1b-1b-|
E|-----------------------------------------------|


E|-----------------------------------------------|
B|-----------------------------------------------|
G|-----------------------------------------------|
D|-----------------------------------------------|
A|-5-5--5--5-5--5--------------------------------| x1
E|-5-5--5--5-5--5--------------------------------|
B|-3-3--3--3-3--3--8-8-8-8-8\7-7-7-7\1-1-1-------|
E|-----------------------------------------------|


E|---------|
B|---------|
G|---------|
D|---------|
A|---------| x1
E|---------|
B|---------|
E|-0-2-3-2-|


E|------------------------------------------|
B|------------------------------------------|
G|------------------------------------------|
D|------------------------------------------|
A|------------------------------------------| x2
E|------------------------------------------|
B|------------------------------------------|
E|-5-2-5-2-5-2-0-2-3-2--5-2-5-2-5-2-0-2-3-2-|


E|-------------------------------------------------------|
B|-------------------------------------------------------|
G|-------------------------------------------------------|
D|---------4--4------------------------------------------|
A|-5--5----5--5----3--3----------------------------------| x1
E|-5--5----5--5----5--5----------------------------------|
B|-3--3----3--3----3--3----8-8-8-8-8\7-7-7-7\1-1-1-1b-1b-|
E|-------------------------------------------------------|


E|-----------------------------------------------|
B|-----------------------------------------------|
G|-----------------------------------------------|
D|-----------------------------------------------|
A|-5-5--5--5-5--5--------------------------------| x6
E|-5-5--5--5-5--5--------------------------------|
B|-3-3--3--3-3--3--8-8-8-8-8\7-7-7-7\1-1-1-1b-1b-|
E|-----------------------------------------------|


E|---------------------------------------------------|
B|---------------------------------------------------|
G|---------------------------------------------------|
D|---------------------------------------------------|
A|-----9-----9-----10-----10-----9-----9-----7-----7-| x8
E|-0-7---0-7---0-7----0-7----0-7---0-7---0-4---0-4---|
B|---------------------------------------------------|
E|---------------------------------------------------|


E|------------------|
B|------------------|
G|------------------|
D|------------------|
A|------------------|
E|-0~~~~~~~~~~~~~~~~|
B|------------------|
E|------------------|
Добавлено: 17.09.2013
Другие материалы по этой песне:

Страница создана 17.09.2013
http://primanota.ru/deftones/romantic-dreams-chords.htm
Привет, Гость.
Предлагаем пройти революционный курс по гитаре.
Подарок от PrimaNota.Ru, забирай!