PrimaNota.ru - самый крупный в мире бесплатный архив песенных текстов, аккордов, табулатур и нот


Deftones - Rosemary - текст песни, таба, видео

Регистрация Запомнить меня
Войти через:  Facebook Google Twitter Vk Yandex Mail.ru

Deftones - Rosemary - текст песни, таба, видео

Печатать
Просмотров: 302
Авторы музыки: Deftones
Авторы текста: Chino Moreno
Deftones- Rosemary
Created by: Kenny *aka* Deftoner664/WayoftheFlesh
Album : Koi No Yokan
Tuning: A#GCFAD

 I tried to integrate all the guitar parts to be played on a 6 string guitar. So 
yes,this may not be EXACTLY how Chino Plays it.
Note that Stephen Carpenter is using an 8 string guitar, so the timbre is different on a 
6 (especially during the heavy outro).
The majority is what Chino's playing. A helpful hint to get Chino's tone is to have alot 
of reverb,chorus with mid range depth and a bit of delay to get that dreamy soundscape.

You can use my tab, but please give me credit for it, if you post this elsewhere!



Intro
 D|------------------5---------------------------5-------------------------------|
 A|--------------3----------------------------3----------------------------------|
 F|-----------3----------------------------3-------------------------------------|
 C|------------------------------------------------------------------------------|
 G|------------------------------------------------------------------------------|
 A#|-----------------------------------------------------------------------------|

 D|-----------------------------------------------------------------------------|
 A|-----------------------------------------------------------------------------|
 F|-----2-----------------5------5h7/10 (slight vibrato bend) -----10-----------|
 C|----------3------------------------------------------------------------------|
 G|-----------------------------------------------------------------------------|
 A#|--------------2(let ring)---------------------------------------------------|

 D|-----------------------------------------------------------------------------|
 A|----------------------------------------10-----------------------------------|
 F|------2---------------5-------5h7/10--------9--------------------------------|
 C|----------3------------------------------------------------------------------|
 G|-----------------------------------------------------------------------------|
 A#|-------------(2)------------------------------------------------------------|

 D|-----------------------------------------------------------------------------|
 A|-----------------------------------------------------------------------------|
 F|-----2-----------------5------5h7/10v -----10--------------------------------|
 C|----------3------------------------------------------------------------------|
 G|-----------------------------------------------------------------------------|
 A#|---------------2(let ring)--------------------------------------------------|

 D|-----------------------------------------------------------------------------|
 A|-----------------------------------------------------------------------------|
 F|-----------------------------------------------------------------------------|
 C|---------3-3---------3h5-5---------------------------------------------------|
 G|---------------h5-------------3h5--------------------------------------------|
 A#|----------------------------------------------------------------------------|


 D|-----------------------------------------------------------------------------|
 A|------------------------0 (let ring)----------------------------0------------|
 F|-----------------------------------------------------------------------------|
 C|-----------------------------------------------------------------------------|
 G|-----------------------------------------------------------------------------|
 A#|--------0h2------0h2------------0h2---0h2--0h2---0h2--0h2--0h2--------------|
 That's Sergio's bass line but you can play it too.

 "There's no sound..."
D|------------------------------------------------------------------------------|
 A|-----------------------------------------------------------------------------|
 F|-----2-----------------5------5h7/10 (slight vibrato bend) -----10-----------|
 C|----------3------------------------------------------------------------------|
 G|-----------------------------------------------------------------------------|
 A#|---------------2(let ring)--------------------------------------------------|

D|------------------------------------------------------------------------------|
 A|-------------------------------------------10--------------------------------|
 F|------2---------------5-------5h7/10---------9-------------------------------|
 C|----------3------------------------------------------------------------------|
 G|-----------------------------------------------------------------------------|
 A#|-------------(2)------------------------------------------------------------|

D|------------------------------------------------------------------------------|
 A|-----------------------------------------------------------------------------|
 F|-----2-----------------5------5h7/10 (slight vibrato bend) -----10-----------|
 C|----------3------------------------------------------------------------------|
 G|-----------------------------------------------------------------------------|
 A#|---------------(2)----------------------------------------------------------|

 D|-----------------------------------------------------------------------------|
 A|-----------------------------------------------------------------------------|
 F|-----------------------------------------------------------------------------|
 C|---------3-3---------3h5-5---------------------------------------------------|
 G|---------------h5-------------3h5--------------------------------------------|
 A#|----------------------------------------------------------------------------|

D|------------------------------------------------------------------------------------------|
 A|-----------------------------------------------------------------------------------------|
 F|-----------------------------------------------------------------------------------------|
 C|-----------------------------------------------------------------------------------------|
 G|------------------------------------------------------------------------3-3-3-3-5-5-5-5--|
A#|--2-2-2-2-2-2-0-0------2-2-2-2-2-3h2p3-0-2--2-2-2-2-2-2-0-0-5-5-5-5-7-7-7-7--------------|


"Time!.." (listen for timing on this riff same notes just different accents on the down beat)

D|------------------------------------------------------------------------------------------|
 A|-----------------------------------------------------------------------------------------|
 F|-----------------------------------------------------------------------------------------|
 C|-----------------------------------------------------------------------------------------|
 G|----0-0-----------------------------------------------------------------3-3-3-3-5-5-5-5--|
-A#|--2-2-2-2-2-2-0-0------2-2-2-2-2-3h2p3-0-2--2-2-2-2-2-2-0-0-5-5-5-5-7-7-7-7-------------|

"Our mind's bend..."

D|------------------------------------------------------------------------------|
 A|-----------------------------------------------------------------------------|
 F|-----2-----------------5------5h7/10 (slight vibrato bend) -----10-----------|
 C|----------3------------------------------------------------------------------|
 G|-----------------------------------------------------------------------------|
 A#|---------------2(let ring)--------------------------------------------------|

D|------------------------------------------------------------------------------|
 A|-------------------------------------------10--------------------------------|
 F|------2---------------5-------5h7/10---------9-------------------------------|
 C|----------3------------------------------------------------------------------|
 G|-----------------------------------------------------------------------------|
 A#|-------------(2)------------------------------------------------------------|

D|-------------------------------------------------------------------------------|
 A|------------------------------------------------------------------------------|
 F|-----2-----------------5------5h7/10 (slight vibrato bend) -------------------|
 C|----------3-------------------------------------------------------------------|
 G|------------------------------------------------------------------------------|
 A#|---------------(2)-----------------------------------------------------------|

 D|-----------------------------------------------------------------------------|
 A|-----------------------------------------------------------------------------|
 F|-----------------------------------------------------------------------------|
 C|---------3-3---------3h5-5---------------------------------------------------|
 G|---------------h5-------------3h5--------------------------------------------|
 A#|----------------------------------------------------------------------------|

 D|-----------------------------------------------------------------------------------------------|
 A|-----------------------------------------------------------------------------------------------|
 F|-----------------------------------------------------------------------------------------------|
 C|-----------------------------------------------------------------------------------------------|
 G|--------------------------------------------------------------------------------3-3-3-3-5-5-5-5|
 A#|--2-2-2-2-2-2-0pm-0pm------2-2-2-2-2-3h2p3-0-2-2-2-2-2-2-2-0-0--5-5-5-5-7-7-7-7---------------|


"Stay with me..." (Listen for the rhythm to get the strumming and chord changes right)

D|------------------------------------------|
 A|-----------------------------------------|
 F|-----9-9-9--4-4-4/5-5-5-5-4-4-4-4--------|       X3
 C|-----X-x-X--x-x-x-5-5-5-5-5-5-5-5--------|
 G|-----7-7-7--2-2-2/3-3-3-3-3-3-3-3--------|
 A#|----------------------------------------|

Break Down (listen for accents on the down beat. He does some bends on the 2nd fret)

D|------------------------------------------------------------------------------|
 A|-----------------------------------------------------------------------------|
 F|-----------------------------------------------------------------------------|
 C|-----------------------------------------------------------------------------|
 G|-----------------------------------------------------------------------------|
 A#|----0h2-0h2-0h2-0h2-0h2-0h2---0h2-0h2-0h2-0h2-0h2-0h2pm---------------------|

"We slow down..."
D|------------------------------------------------------------------------------|
 A|-----------------------------------------------------------------------------|
 F|-----2-----------------5------5h7/10 (slight vibrato bend) -----10-----------|
 C|----------3------------------------------------------------------------------|
 G|-----------------------------------------------------------------------------|
 A#|---------------2(let ring)--------------------------------------------------|

D|------------------------------------------------------------------------------|
 A|-------------------------------------------10--------------------------------|
 F|------2---------------5-------5h7/10---------9-------------------------------|
 C|----------3------------------------------------------------------------------|
 G|-----------------------------------------------------------------------------|
 A#|-------------(2)------------------------------------------------------------|

D|------------------------------------------------------------------------------|
 A|-----------------------------------------------------------------------------|
 F|-----2-----------------5------5h7/10v ---------------------------------------|
 C|----------3------------------------------------------------------------------|
 G|-----------------------------------------------------------------------------|
 A#|---------------(2)----------------------------------------------------------|

 D|-----------------------------------------------------------------------------|
 A|-----------------------------------------------------------------------------|
 F|-----------------------------------------------------------------------------|
 C|---------3-3---------3h5-5---------------------------------------------------|
 G|---------------h5-------------3h5--------------------------------------------|
 A#|----------------------------------------------------------------------------|

"Time!.."

D|------------------------------------------------------------------------------------------|
 A|-----------------------------------------------------------------------------------------|
 F|-----------------------------------------------------------------------------------------|
 C|-----------------------------------------------------------------------------------------|
 G|----0-0-----------------------------------------------------------------3-3-3-3-5-5-5-5--|
-A#|--2-2-2-2-2-2-0-0------2-2-2-2-2-3h2p3-0-2--2-2-2-2-2-2-0-0-5-5-5-5-7-7-7-7-------------|

"Stay with me..." (Listen for the rhythm to get the strumming right and chord changes)

D|------------------------------------------|
 A|-----------------------------------------|
 F|-----9-9-9--4-4-4/5-5-5-5-4-4-4-4--------|       X6
 C|-----X-x-X--x-x-x-5-5-5-5-5-5-5-5--------|
 G|-----7-7-7--2-2-2/3-3-3-3-3-3-3-3--------|
 A#|----------------------------------------|


Steph's Heavy Breakdown (Again, listen for timing, and be aware of palm mutes)

 D|----------------------------------------------------------------------------------------|
 A|----------------------------------------------------------------------------------------|
 F|----------------------------------------------------------------------------------------|
 C|----------------------------------------------------------------------------------------|
 G|----------------------------------------------------------------------------------------|
 A#|-h1p0--3h2pm---h2p0--3h2pm--h2p0---3h2pm--h1p0---3h2pm--h2p0-0-0-h2p0-3h2pm--h1p0 3h2--|


Outro

 D|------------9---------------------------------------------9------------------------|
 A|----------12---12-----------------0-----------12--12--12--12--------0----------12--|
 F|--------11-----------11(bend)---6---------11--11--11-------11b----6--------11------|     X5
 C|------9--------------9-------9---7--7----9----9---9---------9---9--7--7----9-------|
 G|---------------------10----------5--------------------------10-----5---------------|
 A#|----------------------------------------------------------------------------------|
Добавлено: 07.09.2013
Другие материалы по этой песне:

Страница создана 31.08.2013
http://primanota.ru/deftones/rosemary-chords.htm
Привет, Гость.
Предлагаем пройти революционный курс по гитаре.
Подарок от PrimaNota.Ru, забирай!