PrimaNota.ru - самый крупный в мире бесплатный архив песенных текстов, аккордов, табулатур и нот


Deftones - Graphic Nature - текст песни, таба, видео

Регистрация Запомнить меня
Войти через:  Facebook Google Twitter Vk Yandex Mail.ru

Deftones - Graphic Nature - текст песни, таба, видео

Печатать
Просмотров: 167
Авторы музыки: Deftones
Авторы текста: Chino Moreno
-------------------------------------------------------------------------------
                                                  GRAPHIC NATURE - Deftones
-------------------------------------------------------------------------------

THIS TAB IS TO BE USED AS A GUIDELINE AND IS IN NO WAY 100% ACCURATE

Tabbed by: desertscoldmoon
Tuning: E-B-E-A-D-G-B-E

E|----------------------------------------------|
B|----------------------------------------------|
G|----------------------------------------------|
D|----------------------------------------------|
A|-------8-8-------8-8---------8-8--------------| x2
E|----------------------------------------------|
B|-5-5-5--------5------5---X-5-----3-3-3--3-3-3-|
E|----------------------------------------------|


E|----------------------------------------------|
B|----------------------------------------------|
G|----------------------------------------------|
D|----------------------------------------------|
A|-------8-8-------8-8---------8-8--------------| x4
E|----------------------------------------------|
B|-5-5-5-----5-5-5-----5---X-5-----3-3-3--3-3-3-|
E|----------------------------------------------|


E|--------------------|
B|--------------------|
G|--------------------|
D|-9------7-----12----|
A|-9------7-----12----| x4
E|-7-X24--5-X4--10-X4-|
B|-7------5-----10----|
E|-7------5-----10----|


E|---------------------|
B|---------------------|
G|---------------------|
D|-3----5--2-----------|
A|-3----5--2-----------|
E|-1----3--0-----------|
B|-1----3--0-----------|
E|-1----3--0----3/10\3-|


E|----------------------------------------------|
B|----------------------------------------------|
G|----------------------------------------------|
D|----------------------------------------------|
A|-------8-8-------8-8---------8-8--------------| x4
E|----------------------------------------------|
B|-5-5-5-----5-5-5-----5---X-5-----3-3-3--3-3-3-|
E|----------------------------------------------|


E|--------------------|
B|--------------------|
G|--------------------|
D|-9------7-----12----|
A|-9------7-----12----| x4
E|-7-X24--5-X4--10-X4-|
B|-7------5-----10----|
E|-7------5-----10----|


E|------------------------------------------10-----------|
B|------------------------------------------10-----------|
G|------------------------------------------10-----------|
D|-3----5--2----3----5-5--2----3----5--2----12-----------|
A|-3----5--2----3----5-5--2----3----5--2----12-----------|
E|-1----3--0----1----3-3--0----1----3--0----10-----------|
B|-1----3--0----1----3-3--0----1----3--0----10-----------|
E|-1----3--0----1----3-3--0----1----3--0----10----3/10\3-|


E|----------------------------------------------|
B|----------------------------------------------|
G|----------------------------------------------|
D|----------------------------------------------|
A|-------8-8-------8-8---------8-8--------------| x4
E|----------------------------------------------|
B|-5-5-5-----5-5-5-----5---X-5-----3-3-3--3-3-3-|
E|----------------------------------------------|


E|--------------------|
B|--------------------|
G|--------------------|
D|-9------7-----12----|
A|-9------7-----12----| x4
E|-7-X24--5-X4--10-X4-|
B|-7------5-----10----|
E|-7------5-----10----|


E|-----------10-----------------------------10-|
B|------------------------------------------10-|
G|------------------------------------------10-|
D|-3----5--2----3----5-5--2----3----5--2----12-|
A|-3----5--2----3----5-5--2----3----5--2----12-|
E|-1----3--0----1----3-3--0----1----3--0----10-|
B|-1----3--0----1----3-3--0----1----3--0----10-|
E|-1----3--0----1----3-3--0----1----3--0----10-|


E|---------------------------------------------|
B|---------------------------------------------|
G|-10------19------10------19------------------|
D|-X--X32--X--X32--X--X32--X--X16(DOUBLE TIME)-|
A|-8-------17------8-------17------------------| x2
E|---------------------------------------------|
B|---------------------------------------------|
E|---------------------------------------------|


E|------------------------------------------10-----------|
B|------------------------------------------10-----------|
G|------------------------------------------10-----------|
D|-3----5--2----3----5-5--2----3----5--2----12-----------|
A|-3----5--2----3----5-5--2----3----5--2----12-----------|
E|-1----3--0----1----3-3--0----1----3--0----10-----------|
B|-1----3--0----1----3-3--0----1----3--0----10-----------|
E|-1----3--0----1----3-3--0----1----3--0----10----3/10\3-|


E|------------------------------------------10-|
B|------------------------------------------10-|
G|------------------------------------------10-|
D|-3----5--2----3----5-5--2----3----5--2----12-|
A|-3----5--2----3----5-5--2----3----5--2----12-|
E|-1----3--0----1----3-3--0----1----3--0----10-|
B|-1----3--0----1----3-3--0----1----3--0----10-|
E|-1----3--0----1----3-3--0----1----3--0----10-|


E|------------------------------------|
B|------------------------------------|
G|---------------------------------10-|
D|-12/14\12----15----12/14\12-----12--|
A|-X--X--X-----X-----X--X--X-----12---| x2
E|-10/12\10----13----10/12\10---------|
B|------------------------------------|
E|------------------------------------|
Добавлено: 06.11.2013
Другие материалы по этой песне:

Страница создана 06.11.2013
http://primanota.ru/deftones/graphic-nature-chords.htm
Привет, Гость.
Предлагаем пройти революционный курс по гитаре.
Подарок от PrimaNota.Ru, забирай!