PrimaNota.ru - самый крупный в мире бесплатный архив песенных текстов, аккордов, табулатур и нот


Dance Gavin Dance - Something New - таба, видео

Регистрация Запомнить меня
Войти через:  Facebook Google Twitter Vk Yandex Mail.ru

Dance Gavin Dance - Something New - таба, видео

Печатать
Просмотров: 163
Уроки эстрадного вокала в Санкт-Петербурге
-------------------------------------------------------------------------------
                             Something New - Dance Gavin Dance
-------------------------------------------------------------------------------
Something New
Dance Gavin Dance
Instant Gratification
2015

Tabbed by: JP

Tuning: Standard

Listen to the song to get the proper timing and put all the parts together

Intro
e|---------------------------------------------------|
B|--4-----4-----4-----4-----4-----4----4-----4-------|
G|----4-----4-----4-----4-----4-----4----4-----4-----|
D|------6-----6-----6-----6-----5-----5----5-----5---|
A|---------------------------------------------------|
E|---------------------------------------------------|

e|---------------------------------------------------|
B|--4-----4-----4-----4------4------4--4-------------|
G|----4-----4-----4-----4----4------4--4-------------|
D|------6-----6-----6-----6--5------5--5-------------|
A|---------------------------------------------------|
E|---------------------------------------------------|
 
0:08                                         (fast here)
e|---------------------------------------------------------------------|
B|---------------------------------7-9---------------------------------|
G|----------------------6-8-6--------------8888886666------------------|
D|---8-9-8----------6----------9-8-------------------99888888----------|
A|------------9p6h9------------------------------------------999999----|
E|---------------------------------------------------------------------|

e|---------------------------------------------------------------------|
B|---------------------------------7-9-----11-7-0-11-7-0-11-7-0-11-7-0-|
G|----------------------6-8-6------------------------------------------|
D|---8-9-8----------6----------9-8-------------------------------------|
A|------------9p6h9----------------------------------------------------|
E|---------------------------------------------------------------------|

Chorus
e|-----------------11-------14-9-11--------11--11------11--11---|
B|---------12---------12---------------12----------12-----------|
G|--11-8------8-11-------11----------15--15--15--15--15--15-----|
D|-------9------------------------------------------------------|
A|--------------------------------------------------------------|
E|--------------------------------------------------------------|

e|------------------11------14-9-11-------------11--11----------|
B|---------12---------12-------------7--7-----14--14--14--------|
G|--11-8------8-11-------11---------8--8------------------------|
D|-------9------------------------------------------------------|
A|--------------------------------------------------------------|
E|--------------------------------------------------------------|

...brand new
e|-4---4-----4---4-----4---4------------------|
B|-4---4-----4---4-----4---4-------44444444---|
G|-4---4-----4---4-----4---4-------33333333---|
D|-6---6-----6---6-----6---6------------------|
A|-6---6-----6---6-----6---6------------------|
E|--------------------------------------------|

Verse

Guitar 1
e|--------7----------------7-------------4h6---------------4h6----------|
B|-----------4----------------4-----------------------------------------|
G|--4----------4---4-4----------4--4---------4-----4-4---------4--------|
D|--6--------------6-6-------------4---------------4-4------------------|
A|----------------------------------------------------------------------|
E|----------------------------------------------------------------------|

Guitar 2
e|--7h9-9-9h11p9---7h9-9-9h11p9-7---7h9-9-9h11p9---7h9-9-9h11p9-7-------|
B|----------------------------------------------------------------9-----|
G|----------------------------------------------------------------------|
D|----------------------------------------------------------------------|
A|----------------------------------------------------------------------|
E|----------------------------------------------------------------------|

...touch me           
e|--7h9-9-9h11p9-7-11---------7-7h9----|
B|---------------------7-7-7h9---------|
G|-------------------------------------| repeat this part three times then finish with the next one
D|-------------------------------------|
A|-------------------------------------|
E|-------------------------------------|

e|--7h9-9-9h11p9-7--7h-9-9-9h11p9-7----|
B|---------------------------------9---|
G|-------------------------------------|
D|-------------------------------------|
A|-------------------------------------|
E|-------------------------------------|

1:09  (strumming not shown but these are the chords)
e|-------------------------------|
B|-------------------------------|
G|--4---9---8---3---4---9---8----|
D|--x---x---x---x---x---x---x----|
A|--2---7---6---1---2---7---6----|
E|-------------------------------|


1:20  this part comes in 
e|-------------------------------------------|
B|-/4---/4---/4--------/4---/5---/4444444----|
G|----------------/3-------------------------|
D|-------------------------------------------|
A|-------------------------------------------|
E|-------------------------------------------|


2:09
e|--7-------9------11------14-------|
B|--x-(x6)--x-(x6)--x-(x6)--x-(x6)--|
G|--4-------6-------8------11-------|
D|----------------------------------|x2
A|----------------------------------| 
E|----------------------------------|

e|--7-------9------11-12-11---------|
B|--x-(x6)--x-(x6)--x--------14--12-|
G|--4-------6-------9---------------|
D|----------------------------------|
A|----------------------------------| 
E|----------------------------------|

Bridge
e|--6----6----6-----6--7--6--7--6---7-9h11-6--6----7-6-----4-6-----------|
B|--9--9----9---9---8----------------------4---4---4------4--------------|
G|--9-------------9-8----------------------4----4--4-----4-------3h4p3---|
D|------------------------------------------------------6-------4-----4--|
A|-------------------------------------------------------------6---------|
E|-----------------------------------------------------------------------|

e|--4-6-4---4-6-4---4-6-4---6-7-6---6-7-6---6-7-6---|
B|--------4-------4-------4-------7-------7-------7-|
G|--------------------------------------------------|
D|--------------------------------------------------|
A|--------------------------------------------------|
E|--------------------------------------------------|   (i couldn't fit this part on one line)

e|-2-4-2---2-4-2---2-4-2----9-11-9----9-11-9----14-16-14----|
B|-------4-------4----------------12--------12-----------16-|
G|----------------------------------------------------------| repeat that 2x
D|----------------------------------------------------------|
A|----------------------------------------------------------| 
E|----------------------------------------------------------|


e|--4-6-4---4-6-4---4-6-4---6-7-6---6-7-6---6-7-6---|
B|--------4-------4-------4-------7-------7-------7-|
G|--------------------------------------------------|
D|--------------------------------------------------|
A|--------------------------------------------------|
E|--------------------------------------------------|

e|-2-4-2---2--9-11-9----9---11-----11\6------4/6-------6------------|
B|-------4-----------12------x------x\x------x/x-------x---7---4----|
G|---------------------------8------8\3------1/3-------3---x---x----|
D|---------------------------------------------------------4---1----|
A|------------------------------------------------------------------| 
E|------------------------------------------------------------------|
(...continued)
e|-7-------11---6----4/6------6---------------|
B|-x--------x---x----x/x------x---7---4-------|
G|-4--------8---3----1/3------3---x---x-------|
D|--------------------------------4---1-------|
A|--------------------------------------------|
E|--------------------------------------------|

3:10  
repeat this part and then end strumming this chord around 3:25
e|------7-11------11-14-----11--|   |-11-|
B|----7------9-12------12-------|   |-12-|
G|--8---------------------11----|   |-11-|
D|------------------------------|   |----|
A|------------------------------|   |----|
E|------------------------------|   |----|





************************************

| /   slide up
| \   slide down
| h   hammer-on
| p   pull-off
| ~   vibrato
| +   harmonic
| x   Mute note
| b   Bend
| pb  Pre-bend
| br  Bend release
| pbr Pre-bend release
| brb Bend release bend

************************************
Добавлено: 24.08.2015
Другие материалы по этой песне:
  • Аккорды и текст

Страница создана 24.08.2015
http://primanota.ru/dance-gavin-dance/something-new-chords.htm
Привет, Гость.
Предлагаем пройти революционный курс по гитаре.
Подарок от PrimaNota.Ru, забирай!