PrimaNota.ru - самый крупный в мире бесплатный архив песенных текстов, аккордов, табулатур и нот


Dance Gavin Dance - Variation - таба, видео

Регистрация Запомнить меня
Войти через:  Facebook Google Twitter Vk Yandex Mail.ru

Dance Gavin Dance - Variation - таба, видео

Печатать
Просмотров: 137
-------------------------------------------------------------------------------
                             Variation - Dance Gavin Dance
-------------------------------------------------------------------------------
Variation
Dance Gavin Dance
Instant Gratification
2015

Tabbed by: JP

Tuning: Drop D

*Listen to the song to put the parts together and for proper timing

e|-----------------------------------|
B|--------------12-------------------|
G|----------11-----------------------|
D|-----11b----------5--5----2--2-----|
A|------------------5--5----2--2-----|
D|--9---------------5--5----2--2-----|

Verse
guitar 1
e|-----------------------|
B|--3--------------------|
G|------------4----4-----|
D|--4----4----7----4-----|
A|--2----5----5----5-----|
D|-------5----4----5-----|

guitar 2
play 4 times then finish with second part
e|--------------------------------------|-------------------------------|
B|--10-12---10-12--12-------------------|-------------------------------| 
G|--------------------11-12--11-12------|-12-11-----12-11------12-11----|
D|---------------------------------9h12-|------9-12-------9-12----------|
A|--------------------------------------|-------------------------------|
D|--------------------------------------|-------------------------------|

play 4 times then finish with second part
e|-------------------9-10--9-10--9-12-|---------------------------------|
B|--10-12--10-12--12------------------|---------------------------------|
G|------------------------------------|------12-11-----12-11------12-11-|
D|------------------------------------|-9-12------9-12-------9-12-------|
A|------------------------------------|---------------------------------|
D|------------------------------------|---------------------------------|

Pre Chorus
guitar 1
tremolo picking
e|--19----12----------14----------19----12------10----7-------|
B|------------------------------------------------------------|
G|------------------------------------------------------------|
D|------------------------------------------------------------|
A|------------------------------------------------------------|
D|------------------------------------------------------------|

guitar 2 (listen for strumming)
e|------------------------------------------------------------|
B|------------------------------------------------------------|
G|------------------------------------------------------------|
D|--4-----------2----------------4------------5---------------|
A|--4-----------2----------------4------------5---------------|
D|--4-----------2----------------4------------5---------------|


Chorus
e|------------3h5---------------------------5p0----5-2------------|
B|---------3h5---5-----------------------------2h5----------------|
G|-----------------6----------------------------------------------|
D|--9-9-9------------44444455555555--5-5-5--------------55555555--|
A|--9-9-9------------44444455555555--5-5-5--------------55555555--|
D|--9-9-9------------44444455555555--5-5-5--------------55555555--|

Verse 2
guitar 1 is the same

guitar 2
e|-5p0h2---------5p0h2--------------------------------------|
B|-------3h5p3--------3h5p3------7b----7b-------------------|
G|----------------------------------------------------------|
D|----------------------------------------------------------|
A|----------------------------------------------------------|
D|----------------------------------------------------------|

e|-5p0h2-2p0------------------------------------------------|
B|----------3-t10p5p3-t14p5p3-------------------------------|
G|-------------------------------(repeat a lot)-------------|
D|----------------------------------------------------------|
A|----------------------------------------------------------|
D|----------------------------------------------------------|

Bridge
guitar 1
e|---------------------------------------------------------------------------|
B|---------------------------------------------------------------------------|
G|---------------------------------------------------------------------------|
D|-999999-9--9--9--9--9--9--999999-------------------------------------------|
A|-999999-9--9--9--9--9--9--999999-------------------------------------------|
D|-999999-9--9--9--9--9--9--999999-------------------------------------------|

guitar 2
e|---------------------------------------------------------------------------|
B|---------------------------------------------------------------------------|
G|---------------------------------------------------------------------------|
D|---------------------------------------------------------------------------|
A|---------------------------------------------------------------------------|
D|---------------------------------------------------------------------------|

*help me finish it!

************************************

| /   slide up
| \   slide down
| h   hammer-on
| p   pull-off
| ~   vibrato
| +   harmonic
| x   Mute note
| b   Bend
| pb  Pre-bend
| br  Bend release
| pbr Pre-bend release
| brb Bend release bend

************************************
Добавлено: 24.08.2015
Другие материалы по этой песне:
  • Аккорды и текст

Страница создана 24.08.2015
http://primanota.ru/dance-gavin-dance/variation-chords.htm
Привет, Гость.
Предлагаем пройти революционный курс по гитаре.
Подарок от PrimaNota.Ru, забирай!