PrimaNota.ru - самый крупный в мире бесплатный архив песенных текстов, аккордов, табулатур и нот


Dance Gavin Dance - Acceptance Speech - таба, видео

Регистрация Запомнить меня
Войти через:  Facebook Google Twitter Vk Yandex Mail.ru

Dance Gavin Dance - Acceptance Speech - таба, видео

Печатать
Просмотров: 49
acceptance speech - dance gavin dance
tuning is drop c#


e-7-x-7-x-7-x-7-7--xx-7--7-------------------
b-8-x-8-x-8-x-8-10-xx-10-10------7h8p7-------
g-9-x-9-x-9-x-9-9--xx-9--9--7h89-------9p7h9-
D-9-x-9-x-9-x-9-7--xx-7--7-------------------
A-7-x-7-x-7-x-7-7--xx-7--7-------------------
E---x---x---x------xx------------------------ 

transition
e--
b--
g--
D-2~
A-2~
E-2~


e--7--7--x--7--7--7--x--7--7--7--x--7-----------
b--8--8--x--8--8--8--x--8--8--8--x--8-----------
g--9--9--x--9--9--9--x--9--9--9--x--9--7--5--4--
D--9--9--x--9--9--9--x--9--9--9--x--9--7--5--4--
A--7--7--x--7--7--7--x--7--7--7--x--7--5--3--2--
E--------x-----------x-----------x--------------


e-----------------------
b-----------------------
g-----------------------
D--2--5--9--2--7--5--0--
A--2--5--9--2--7--5--0--
E--2--5--9--2--7--5--0--


listen for rythym

e--7-------------------------10--
b--8-------------------------12--
g--9-play like 12 times then-12--
D--9-------------------------12--
A--7-------------------------10--
E--------------------------------

lead ontop of that

e--------------------------------------------------------------------------
b--17p12--12-------------17p12--12---------------------------------12--15--
g-----------------12h14-----------------12h14--14h16p14--16h17p16----------
D-------------16--------------------16-------------------------------------
A--------------------------------------------------------------------------
E--------------------------------------------------------------------------


e--------------------------------------------------------------------------
b--17p12--12-------------17p12--12-----------------------------------------
g-----------------12h14-----------------12h14--12h14p12-11h12p11-14-12-11--
D-------------16--------------------16-------------------------------------
A--------------------------------------------------------------------------
E--------------------------------------------------------------------------

mess of sound

e--------------
b--------------
g--------------
D--------------
A--------------
E-2-0-2-0-2-0-2

clean

e--3--7--5--7--
b--5--8--7--8--
g--5--7--7--9--
D--5--5--7--9--
A--3--5--5--7--
E-----5--------
Добавлено: 15.04.2016
Другие материалы по этой песне:
  • Аккорды и текст

Страница создана 15.04.2016
http://primanota.ru/dance-gavin-dance/acceptance-speech-chords.htm
Привет, Гость.
Предлагаем пройти революционный курс по гитаре.
Подарок от PrimaNota.Ru, забирай!