PrimaNota.ru - самый крупный в мире бесплатный архив песенных текстов, аккордов, табулатур и нот


Dance Gavin Dance - 12 Hours 630 Miles - текст песни, таба, видео

Регистрация Запомнить меня
Войти через:  Facebook Google Twitter Vk Yandex Mail.ru

Dance Gavin Dance - 12 Hours 630 Miles - текст песни, таба, видео

Печатать
Просмотров: 119
First Tab. I believe it is correct. Have fun guys :D

--------------------------------------------------------------|
-3/5\3-3H5P3--------------3/5\3-3H5P3-------------------------|
------------5-4----------------------5-4----------------------|
----------------5-2-5-7-7----------------5-2-5-7-7--7-5-2-5-2-|
--------------------------------------------------------------|
--------------------------------------------------------------|

-------------------------7-------7------------------|      Repeat All
-3/5\3-3H5P3--------------8-----8-8-----------------|      Twice.
------------5-4------------9-7-9---9-7H9P7H9--------|      Second time though
----------------5-2-5-7-7---------------------------|       the last part is:
----------------------------------------------------|
----------------------------------------------------|

-7-------7------|
--8-----8-8~~---|
---9-7-9--------|
----------------|
----------------|
----------------|

7-------------12--------------5-------------7---------------12-|
---------------------------------------------------------------|
---------------------------------------------------------------|
---------------------------------------------------------------|
---------------------------------------------------------------|
---------------------------------------------------------------|

3-5-7(slide to 7 and down to three if wanted)-3---------|
------------------------------------------------5-3-5-3-|
--------------------------------------------------------|
--------------------------------------------------------|
--------------------------------------------------------|
--------------------------------------------------------|

7-7-7-7-7-7--12-12-12-12-12-12--5-5-5-5-5-5--3-5-3------|
--------------------------------------------------5-3-5-|
--------------------------------------------------------|
--------------------------------------------------------|
--------------------------------------------------------|
--------------------------------------------------------|

7-7-7-7-7-7--12-12-12-12-12-12--3-5-7-3--------|
---------------------------------------5-3-5-3-|
-----------------------------------------------|
-----------------------------------------------|
-----------------------------------------------|
-----------------------------------------------|

7-7-7-7-7-7--12-12-12-12-12-12--5-5-5-5-5-5--3-5-3------|
--------------------------------------------------5-3-5-|
--------------------------------------------------------|
--------------------------------------------------------|
--------------------------------------------------------|
--------------------------------------------------------|

7-------7----|
-8-----8-8~~-|
--9-7-9------|
-------------|
-------------|
-------------|

Enjoy!
Добавлено: 01.03.2012
Другие материалы по этой песне:

Страница создана 23.02.2012
http://primanota.ru/dance-gavin-dance/12-hours-630-miles-chords.htm
Привет, Гость.
Предлагаем пройти революционный курс по гитаре.
Подарок от PrimaNota.Ru, забирай!