PrimaNota.ru - самый крупный в мире бесплатный архив песенных текстов, аккордов, табулатур и нот


Dance Gavin Dance - Strawberry Swisher Pt 2 - бас-таба, видео

Регистрация Запомнить меня
Войти через:  Facebook Google Twitter Vk Yandex Mail.ru

Dance Gavin Dance - Strawberry Swisher Pt 2 - бас-таба, видео

Печатать
Просмотров: 58
Tabbed by: Joshua Garcia (joshuag523@aol.com)

Tabs for the song: Strawberry Swisher, Pt. 2 by Dance Gavin Dance
Please rate and let me know if you have any corrections. Thank you.


Tuning: Standard (E A D G)


Intro
Bass:
G||-------------------------------------------------------------------|
D||-------------------------------------------------------------------|
A||--9---9---9-11----------------------------------8---8---8-8-8-6h8--| x4
E||----------------9---9---9-9-9-9-6-6---6---6-4h6--------------------|



Pre-Chorus
G||---------------------------------------------------|
D||---------------------------------------------------|
A||--9-9----8-8----6~----4/8-9-9----8-8----6~----4/8--|
E||---------------------------------------------------|



Chorus
G||---------------------------------------------------------------|
D||----------------11---11-------------------------------2--------|
A||--9-9--------13------------13\--6-6-6-6----4~---4-4-4---4-2-4--|
E||---------------------------------------------------------------|


G||-----------------------------------------------------------------|
D||----------------11---11------------------------------------------|
A||--9-9--------13------------13\--6-6-6-6----4~----/9---9----------|
E||--------------------------------------------------------11-9-11--|


G||---------------------------------------------------------------|
D||----------------11---11-------------------------------2--------|
A||--9-9--------13------------13\--6-6-6-6----4~---4-4-4---4-2-4--|
E||---------------------------------------------------------------|


G||-----------------------------------------------------------------|
D||----------------11---13------------------------------------------|
A||--9-9--------13------------13\--6-6-6-6----4~----/9---9----------|
E||--------------------------------------------------------11-9-11--|



Verse
G||----------------------------------------6------|-------------------------------------------------|
D||------------6-8~----------------6-8~------8-6--|----------------------------------------6--------|
A||--4-6~----------------4-6~---------------------|------------6-8~----------------6-8~------8-6-8--|
E||-----------------------------------------------|--6-9~----------------6-9~-----------------------|


G||----------------------------------------6------|-----------------------------------------|
D||------------6-8~----------------6-8~------8-6--|-----------------------------------------|
A||--4-6~----------------4-6~---------------------|------------6-8~----------------6-8---/--|
E||-----------------------------------------------|--6-9~----------------6-9~---------------|



Bridge
G||---------------------------------------------------------------------|
D||--------11---8-------------11---8---------11---8-------------11---8--|
A||--0-8-9----------0-8-0-8-9----------0-8-9----------0-8-0-8-9---------|
E||---------------------------------------------------------------------|


G||----------13---------------------13h15----------------13---------------------15--|
D||--0-11-13------15---0-11-0-11-13---------15---0-11-13------15---0-11-0-11-13-----|
A||---------------------------------------------------------------------------------|
E||---------------------------------------------------------------------------------|


G||---------------------------------------------------------------------|
D||--------11---8-------------11---8---------11---8-------------11---8--|
A||--0-8-9----------0-8-0-8-9----------0-8-9----------0-8-0-8-9---------|
E||---------------------------------------------------------------------|


G||----------13---------------------13h15----------------13---------------------13h15-------|
D||--0-11-13------15---0-11-0-11-13---------15---0-11-13------15---0-11-0-11-13---------15--|
A||-----------------------------------------------------------------------------------------|
E||-----------------------------------------------------------------------------------------|



Pre-Chorus
G||---------------------------|
D||---------------------------|
A||--9-9----8-8----6~----4/8--|
E||---------------------------|



Chorus
G||---------------------------------------------------------------|
D||----------------11---11-------------------------------2--------|
A||--9-9--------13------------13\--6-6-6-6----4~---4-4-4---4-2-4--|
E||---------------------------------------------------------------|


G||-----------------------------------------------------------------|
D||----------------11---11------------------------------------------|
A||--9-9--------13------------13\--6-6-6-6----4~----/9---9----------|
E||--------------------------------------------------------11-9-11--|


G||---------------------------------------------------------------|
D||----------------11---11-------------------------------2--------|
A||--9-9--------13------------13\--6-6-6-6----4~---4-4-4---4-2-4--|
E||---------------------------------------------------------------|


G||-----------------------------------------------------|
D||----------------11---13------------------------------|
A||--9-9--------13------------13\--6-6-6-6----4~-----/--|
E||-----------------------------------------------------|



Outro
G||------------------------------------------------------|
D||---------------------8-11-----------------------------|
A||--9--9--9--9--9--8-9------------------------9-8----8--|
E||--------------------------9--9--9--9--9--9------11----|


G||---------------------------------------------------------|
D||------------------------8-11-----------------------------|
A||--9--9--9--9--9--9--8-9------------------------9-8----8--|
E||-----------------------------9--9--9--9--9--9------11----|


G||---------------------------------------------------------|
D||------------------------8-11-----------------------------|
A||--9--9--9--9--9--9--8-9------------------------9-8----8--|
E||-----------------------------9--9--9--9--9--9------11----|


G||-----------------------------------------------------------|
D||------------------------8-11-------------------------------|
A||--9-9-9-9--9--9--9--8-9--------------------------9-8----8--| x4
E||-------------------------------9-9-9-9--9--9--9------11----|




Tablature Legend
----------------
 h   hammer-on
 p   pull-off
 b   bend
 pb  pre-bend
 r   release bend
 ~   hold / vibrato
 .   palm mute
 /   slide up
 \   slide down
 *   pinch harmonic
 '   natural harmonic
 x   mute note
 T   tap
Добавлено: 15.04.2016
Другие материалы по этой песне:
  • Аккорды и текст

Страница создана 15.04.2016
http://primanota.ru/dance-gavin-dance/strawberry-swisher-pt-2-chords.htm
Привет, Гость.
Предлагаем пройти революционный курс по гитаре.
Подарок от PrimaNota.Ru, забирай!