PrimaNota.ru - самый крупный в мире бесплатный архив песенных текстов, аккордов, табулатур и нот


Dance Gavin Dance - And I Told Them I Invented Times New Roman - таба, бас-таба, видео

Регистрация Запомнить меня
Войти через:  Facebook Google Twitter Vk Yandex Mail.ru

Dance Gavin Dance - And I Told Them I Invented Times New Roman - таба, бас-таба, видео

Печатать
Просмотров: 149
                  And I Told Them I Invented Times New Roman                   
                              Dance Gavin Dance

This is exported directly from the gp5 version, because i got a few requests to submit it as text.

Guitar 1                                                              
      E        E   E   E   E   E   E   E      E   E   E   E   E   E   E   E   
E||---------------------------------------|----------------------------------|
B||---------------------------------------|----------------------------------|
G||--10-------10--10--10--10--10--10--10--|--10--10--10--10--10--10--10--10--|
D||---x--------x---x---x---x---x---x---x--|---x---x---x---x---x---x---x---x--|
A||---8--------8---8---8---8---8---8---8--|---8---8---8---8---8---8---8---8--|
D||---------------------------------------|----------------------------------|


  E  E  E  E  E  E  E  E     E  E  E  E  E  E  E  E   
--------------------------|--------------------------|
--------------------------|--------------------------|
--9--9--9--9--9--9--9--9--|--9--9--9--9--9--9--9--9--|
--x--x--x--x--x--x--x--x--|--x--x--x--x--x--x--x--x--|
--7--7--7--7--7--7--7--7--|--7--7--7--7--7--7--7--7--|
--------------------------|--------------------------|


  E  E  E  E  E  E  E  E     E  E  E  E  E  E  E  E   
--------------------------|--------------------------|
--------------------------|--------------------------|
--5--5--5--5--5--5--5--5--|--5--5--5--5--5--5--5--5--|
--x--x--x--x--x--x--x--x--|--x--x--x--x--x--x--x--x--|
--3--3--3--3--3--3--3--3--|--3--3--3--3--3--3--3--3--|
--------------------------|--------------------------|


  E  E  E  E  E  E  E  E       E    Q      E   E   E     Q      
--------------------------|------------------------------------|
--------------------------|--(10)---------(6)-----(5)p--(3)----|
--7--7--7--7--7--7--7--7--|------------------------------------|
--x--x--x--x--x--x--x--x--|--------(7)-------------------------|
--5--5--5--5--5--5--5--5--|------------------------------------|
--------------------------|------------------------------------|


   E   E   E   E   E   E   E   E      E   E   E   E   E   E   E   E   
----------------------------------|----------------------------------|
------------------13--------------|------13----------13--------------|
--10--10--10--10--10--10--10--10--|--10--10--10--10--10--10--10--10--|
---x---x---x---x---x---x---x---x--|---x---x---x---x---x---x---x---x--|
---8---8---8---8---8---8---8---8--|---8---8---8---8---8---8---8---8--|
----------------------------------|----------------------------------|


   E   E   E   E   E   E   E   E      E   E   E   E   E   E   E   E   
----------------------------------|----------------------------------|
----------------------------------|----------------------------------|
--12--12--12--12--12--12--12--12--|--12--12--12--12--12--12--12--12--|
---x---x---x---x---x---x---x---x--|---x---x---x---x---x---x---x---x--|
--10--10--10--10--10--10--10--10--|--10--10--10--10--10--10--10--10--|
----------------------------------|----------------------------------|


   E   E   E   E   E   E   E   E      E   E   E   E   E   E   E   E   
----------------------------------|----------------------------------|
--13--13--13--13--13--13--13--13--|--13--13--13--13--13--13--13--13--|
---x---x---x---x---x---x---x---x--|---x---x---x---x---x---x---x---x--|
--10--10--10--10--10--10--10--10--|--10--10--10--10--10--10--10--10--|
----------------------------------|----------------------------------|
----------------------------------|----------------------------------|


   E   E   E   E   E   E   E   E       E    Q      E   E   E     Q      
----------------------------------|------------------------------------|
--10--10--10--10--10--10--10--10--|--(10)---------(6)-----(5)p--(3)----|
---x---x---x---x---x---x---x---x--|------------------------------------|
---7---7---7---7---7---7---7---7--|--------(7)-------------------------|
----------------------------------|------------------------------------|
----------------------------------|------------------------------------|


  W                   H.           E  E     W                 
-------------------|---------------------|-------------------|
--6----------------|--L------------6--8--|--8----------------|
--9----------------|--L------------------|-------------------|
-------------------|---------------------|-------------------|
-------------------|---------------------|-------------------|
-------------------|---------------------|-------------------|


  H.           E   E      W                   H.            E   E   
----------------------|--------------------|-----------------------|
--L------------8--10--|--10----------------|--L------------10--13--|
----------------------|--------------------|-----------------------|
----------------------|--------------------|-----------------------|
----------------------|--------------------|-----------------------|
----------------------|--------------------|-----------------------|


                                                 TP                
   H.            E   E      W                    W                 
------------------------|--------------------|--17----------------|
--13------------13--15--|--15----------------|--------------------|
------------------------|--------------------|--------------------|
------------------------|--------------------|--------------------|
------------------------|--------------------|--------------------|
------------------------|--------------------|--------------------|


   TP        TP           TP                   TP        TP        
   H         H            W                    H         H         
--17--------18--------|--15----------------|----------------------|
----------------------|--------------------|--17--------18--------|
----------------------|--------------------|----------------------|
----------------------|--------------------|----------------------|
----------------------|--------------------|----------------------|
----------------------|--------------------|----------------------|


  W                   H.           E.  S     W                 
--5----------------|--L------------L---LS-|--3----------------|
--6----------------|--L------------L---LS-|--5----------------|
--2----------------|--L------------L---LS-|--0----------------|
--0----------------|--L------------L---L--|--0----------------|
-------------------|----------------------|-------------------|
-------------------|----------------------|-------------------|


                       TP                   TP        TP        
  W                    W                    H         H         
--L----------------|--17----------------|--17--------18--------|
--L----------------|--------------------|----------------------|
--L----------------|--------------------|----------------------|
--L----------------|--------------------|----------------------|
-------------------|--------------------|----------------------|
-------------------|--------------------|----------------------|


   TP                   TP        TP                            
   W                    H         H           W                 
--15----------------|----------------------|--5----------------|
--------------------|--17--------15--------|--6----------------|
--------------------|----------------------|--2----------------|
--------------------|----------------------|--0----------------|
--------------------|----------------------|-------------------|
--------------------|----------------------|-------------------|


  H.           E.  S     W                   W                 
--L------------L---LS-|--3----------------|--L----------------|
--L------------L---LS-|--5----------------|--L----------------|
--L------------L---LS-|--0----------------|--L----------------|
--L------------L---L--|--0----------------|--L----------------|
----------------------|-------------------|-------------------|
----------------------|-------------------|-------------------|


  E   E   E  H        E     H.           Q        E   E   E  Q     E    E   E   
-------------------------|---------------------|-------------------------------|
-------------------------|---------------------|-------------------------------|
-------------2--------L--|--L------------------|-------------9--------------5--|
-----(3)-----------------|---------------------|-----(7)----------(7)----------|
--1-------1--------------|---------------1/----|--7-------7------------(7)-----|
-------------------------|---------------------|-------------------------------|


  E  E    E     E   E    E     Q        E  E  E  Q.     Q     
-------------------------------------|-----------------------|
-------------------------------------|-----------1-----------|
--L--7--------------7----------------|------------------2----|
--------(10)-----------(10)----------|-----------------------|
--------------(12)-----------(12)----|--1--1--1--------------|
-------------------------------------|-----------------------|


  H.           Q        E   E   E   H         E     W                 
---------------------|---------------------------|-------------------|
---------------------|---------------------------|-------------------|
--L------------------|---------------------------|-------------------|
---------------------|-----(7)-----(7)--------L--|--L----------------|
---------------1/----|--8-------8----------------|-------------------|
---------------------|---------------------------|-------------------|


  E   E   E  H        E     H.           Q        E   E   E  Q     E    E   E   
-------------------------|---------------------|-------------------------------|
-------------------------|---------------------|-------------------------------|
-------------2--------L--|--L------------------|-------------9--------------5--|
-----(3)-----------------|---------------------|-----(7)----------(7)----------|
--1-------1--------------|---------------1/----|--7-------7------------(7)-----|
-------------------------|---------------------|-------------------------------|


  E  E    E     E   E    E     Q        E  E  E  Q.     Q     
-------------------------------------|-----------------------|
-------------------------------------|-----------1-----------|
--L--7--------------7----------------|------------------2----|
--------(10)-----------(10)----------|-----------------------|
--------------(12)-----------(12)----|--1--1--1--------------|
-------------------------------------|-----------------------|


  H.           Q        E   E   E   H         E     W                 
---------------------|---------------------------|-------------------|
---------------------|---------------------------|-------------------|
--L------------------|---------------------------|-------------------|
---------------------|-----(7)-----(7)--------L--|--L----------------|
---------------1/----|--8-------8----------------|-------------------|
---------------------|---------------------------|-------------------|


   S S S S S S  S S S S S S  S S S S    S S  S S S S S S  E   E   E  E   
-------------------------------------|----------------------------------|
-------------------------------------|----------------------------------|
--10-x-x-x-x-x-10-x-x-x-x-x-10-x-x-x-|--x-x-10-x-x-x-x-x-10--10--10--7--|
---x-x-x-x-x-x--x-x-x-x-x-x--x-x-x-x-|--x-x--x-x-x-x-x-x--x---x---x--x--|
---8-x-x-x-x-x--8-x-x-x-x-x--8-x-x-x-|--x-x--8-x-x-x-x-x--8---8---8--5--|
-------------------------------------|----------------------------------|


   S S S S S S  S S S S S S  S S S S    S S  S S S S S S  E   E   E  E   
-------------------------------------|----------------------------------|
-------------------------------------|----------------------------------|
--10-x-x-x-x-x-10-x-x-x-x-x-10-x-x-x-|--x-x-10-x-x-x-x-x-10--10--10--9--|
---x-x-x-x-x-x--x-x-x-x-x-x--x-x-x-x-|--x-x--x-x-x-x-x-x--x---x---x--x--|
---8-x-x-x-x-x--8-x-x-x-x-x--8-x-x-x-|--x-x--8-x-x-x-x-x--8---8---8--7--|
-------------------------------------|----------------------------------|


   S S S S S S  S S S S S S  S S S S    S S  S S S S S S  E  E   Q     
-------------------------------------|--------------------------------|
-------------------------------------|--------------------------------|
--10-x-x-x-x-x-10-x-x-x-x-x-10-x-x-x-|--x-x-10-x-x-x-x-x-10--7--10----|
---x-x-x-x-x-x--x-x-x-x-x-x--x-x-x-x-|--x-x--x-x-x-x-x-x--x--x---x----|
---8-x-x-x-x-x--8-x-x-x-x-x--8-x-x-x-|--x-x--8-x-x-x-x-x--8--5---8----|
-------------------------------------|--------------------------------|


   S S S S S S  S S S S S S  S S S S    S S  S S S S S S  E   E   Q     
-------------------------------------|---------------------------------|
-------------------------------------|---------------------------------|
--10-x-x-x-x-x-10-x-x-x-x-x-10-x-x-x-|--x-x-10-x-x-x-x-x-10--10--10----|
---x-x-x-x-x-x--x-x-x-x-x-x--x-x-x-x-|--x-x--x-x-x-x-x-x--x---x---x----|
---8-x-x-x-x-x--8-x-x-x-x-x--8-x-x-x-|--x-x--8-x-x-x-x-x--8---8---8----|
-------------------------------------|---------------------------------|


  E  Q    E  Q    E  E     H        E  E  Q       E  H        E  E  E   
------------------------|----------------------|-----------------------|
------------------------|-----------6--6--6----|-----------------------|
--7-------7-------7-----|-----------3--3--3----|--7--------------7-----|
--8-------8-------8-----|-----------0--0--0----|--8--------------8-----|
--5-------5-------5-----|----------------------|--5--------------5-----|
------------------------|----------------------|-----------------------|


  H.           E  E      E   E   E   E   E   E   E   E   
---------------------|----------------------------------|
---------------------|----------------------------------|
---------------7-----|--10--10--10--10--10--10--10--10--|
---------------8-----|---x---x---x---x---x---x---x---x--|
---------------5-----|---8---8---8---8---8---8---8---8--|
---------------------|----------------------------------|


   E   E   E   E   E   E   E   E     E  E  E  E  E  E  E  E   
----------------------------------|--------------------------|
----------------------------------|--------------------------|
--10--10--10--10--10--10--10--10--|--9--9--9--9--9--9--9--9--|
---x---x---x---x---x---x---x---x--|--x--x--x--x--x--x--x--x--|
---8---8---8---8---8---8---8---8--|--7--7--7--7--7--7--7--7--|
----------------------------------|--------------------------|


  E  E  E  E  E  E  E  E     E  E  E  E  E  E  E  E   
--------------------------|--------------------------|
--------------------------|--------------------------|
--9--9--9--9--9--9--9--9--|--5--5--5--5--5--5--5--5--|
--x--x--x--x--x--x--x--x--|--x--x--x--x--x--x--x--x--|
--7--7--7--7--7--7--7--7--|--3--3--3--3--3--3--3--3--|
--------------------------|--------------------------|


  E  E  E  E  E  E  E  E     E  E  E  E  E  E  E  E   
--------------------------|--------------------------|
--------------------------|--------------------------|
--5--5--5--5--5--5--5--5--|--7--7--7--7--7--7--7--7--|
--x--x--x--x--x--x--x--x--|--x--x--x--x--x--x--x--x--|
--3--3--3--3--3--3--3--3--|--5--5--5--5--5--5--5--5--|
--------------------------|--------------------------|


    E    Q      E   E   E     Q         E   E   E   E   E   E   E   E   
------------------------------------|----------------------------------|
--(10)---------(6)-----(5)p--(3)----|------------------13--------------|
------------------------------------|--10--10--10--10--10--10--10--10--|
--------(7)-------------------------|---x---x---x---x---x---x---x---x--|
------------------------------------|---8---8---8---8---8---8---8---8--|
------------------------------------|----------------------------------|


   E   E   E   E   E   E   E   E      E   E   E   E   E   E   E   E   
----------------------------------|----------------------------------|
------13----------13--------------|----------------------------------|
--10--10--10--10--10--10--10--10--|--12--12--12--12--12--12--12--12--|
---x---x---x---x---x---x---x---x--|---x---x---x---x---x---x---x---x--|
---8---8---8---8---8---8---8---8--|--10--10--10--10--10--10--10--10--|
----------------------------------|----------------------------------|


   E   E   E   E   E   E   E   E      E   E   E   E   E   E   E   E   
----------------------------------|----------------------------------|
----------------------------------|--13--13--13--13--13--13--13--13--|
--12--12--12--12--12--12--12--12--|---x---x---x---x---x---x---x---x--|
---x---x---x---x---x---x---x---x--|--10--10--10--10--10--10--10--10--|
--10--10--10--10--10--10--10--10--|----------------------------------|
----------------------------------|----------------------------------|


   E   E   E   E   E   E   E   E      E   E   E   E   E   E   E   E   
----------------------------------|----------------------------------|
--13--13--13--13--13--13--13--13--|--10--10--10--10--10--10--10--10--|
---x---x---x---x---x---x---x---x--|---x---x---x---x---x---x---x---x--|
--10--10--10--10--10--10--10--10--|---7---7---7---7---7---7---7---7--|
----------------------------------|----------------------------------|
----------------------------------|----------------------------------|


    E    Q      E   E   E     Q         E    E    E   H        E   
------------------------------------|--------------------------5--|
--(10)---------(6)-----(5)p--(3)----|-----------------3-----------|
------------------------------------|-----------------------------|
--------(7)-------------------------|-----------------------------|
------------------------------------|--(1)--(1)--(1)--------------|
------------------------------------|-----------------------------|


  E  Q    Q    E   Q        E    E    E   H        E     W                 
--L-------1-------------|--------------------------3--|--L----------------|
-----3---------5p--3----|-----------------2-----------|-------------------|
------------------------|-----------------------------|-------------------|
------------------------|-----------------------------|-------------------|
------------------------|--(0)--(0)--(0)--------------|-------------------|
------------------------|-----------------------------|-------------------|


   E    E    E   H        E     E  E   E  Q    Q.      
--------------------------1--|--L---------------------|
-----------------------------|------------------------|
-----------------3-----------|-----3p--0-------0------|
-----------------------------|------------3-----------|
-----------------------------|------------------------|
--(5)--(5)--(5)--------------|------------------------|


  H        E  E   E   E     W                    Q.      Q     Q     E   
-------------------------|-------------------|-----------------------5--|
-------------------------|-------------------|-----------3--------------|
--L-----------2h--3p--2--|--L----------------|----------------(3)-------|
-------------------------|-------------------|--------------------------|
-------------------------|-------------------|--(1)---------------------|
--3--------L-------------|-------------------|--------------------------|


  E  E   E   E  E  E   Q        Q.      H        E     W                 
--L----------1--------------|--------------------3--|--L----------------|
-----3-------------5p--3----|-----------2-----------|-------------------|
--------(3)-----------------|-----------------------|-------------------|
----------------------------|-----------------------|-------------------|
----------------------------|--(0)------------------|-------------------|
----------------------------|-----------------------|-------------------|


   Q.      Q    Q    E     E  E   E  E  E  Q.        H        E  E   E   E   
---------------------1--|--L----------------------|-------------------------|
------------------------|-------------------------|-------------------------|
-----------3----0-------|-----3p--0--------0------|--------------2h--3p--2--|
------------------------|------------3------------|-------------------------|
------------------------|-------------------------|-------------------------|
--(5)-------------------|-------------------------|--3--------L-------------|


  W                    Q.      H        E     E  Q    Q    E   Q     
-------------------|--------------------5--|--L-------1-------------|
-------------------|-----------3-----------|-----3---------5p--3----|
--L----------------|-----------------------|------------------------|
-------------------|-----------------------|------------------------|
-------------------|--(1)------------------|------------------------|
-------------------|-----------------------|------------------------|


   Q.      H        E     W                    Q.      H        E   
--------------------3--|--L----------------|--------------------1--|
-----------2-----------|-------------------|-----------------------|
-----------------------|-------------------|-----------3-----------|
-----------------------|-------------------|-----------------------|
--(0)------------------|-------------------|-----------------------|
-----------------------|-------------------|--(5)------------------|


  E  E   E  Q    Q.        H        E  E   E   E     W                 
--L---------------------|-------------------------|-------------------|
------------------------|-------------------------|-------------------|
-----3p--0-------0------|--L-----------2h--3p--2--|--L----------------|
------------3-----------|-------------------------|-------------------|
------------------------|-------------------------|-------------------|
------------------------|--3--------L-------------|-------------------|


   Q.      Q     Q     E     E  E   E   E  E  E   Q        Q.      H        E   
-----------------------5--|--L----------1--------------|--------------------3--|
-----------3--------------|-----3-------------5p--3----|-----------2-----------|
----------------(3)-------|--------(3)-----------------|-----------------------|
--------------------------|----------------------------|-----------------------|
--(1)---------------------|----------------------------|--(0)------------------|
--------------------------|----------------------------|-----------------------|


  W                    Q.      Q    Q    E     E  E   E  E  E  Q.      
--L----------------|---------------------1--|--L----------------------|
-------------------|------------------------|-------------------------|
-------------------|-----------3----0-------|-----3p--0--------0------|
-------------------|------------------------|------------3------------|
-------------------|------------------------|-------------------------|
-------------------|--(5)-------------------|-------------------------|


  H        E  E   E   E     W                   E   E   E   E   E   E   E   E   
-------------------------|-------------------|--8--10--10--10--10--10--10--10--|
-------------------------|-------------------|---------------------------------|
--------------2h--3p--2--|--L----------------|---------------------------------|
-------------------------|-------------------|---------------------------------|
-------------------------|-------------------|---------------------------------|
--3--------L-------------|-------------------|---------------------------------|


   E  E   E   E   E   E   E   E     E    E   E  Q.     Q     
--10-----------------------------|--------------------------|
------8--10--10--10--10--10--10--|--------------------------|
---------------------------------|--9h--10p--9--7------5----|
---------------------------------|--------------------------|
---------------------------------|--------------------------|
---------------------------------|--------------------------|


  E  E   E   E  E  Q.        E   E   E   E   E   E   E   E   
--------------------------|--8--10--10--10--10--10--10--10--|
--------------------------|---------------------------------|
--L--2h--3p--2------------|---------------------------------|
----------------3--0------|---------------------------------|
--------------------------|---------------------------------|
--------------------------|---------------------------------|


   E  E   E   E   E   E   E   E     E    E   E  Q.     Q     
--10-----------------------------|--------------------------|
------8--10--10--10--10--10--10--|--------------------------|
---------------------------------|--9h--10p--9--7------5----|
---------------------------------|--------------------------|
---------------------------------|--------------------------|
---------------------------------|--------------------------|


  E  E   E   E  E  Q.        E   E   E   E   E   E   E   E   
--------------------------|--8--10--10--10--10--10--10--10--|
--------------------------|---------------------------------|
--L--2h--3p--2------------|---------------------------------|
----------------3--0------|---------------------------------|
--------------------------|---------------------------------|
--------------------------|---------------------------------|


   E  E   E   E   E   E   E   E     E    E   E  Q.     Q     
--10-----------------------------|--------------------------|
------8--10--10--10--10--10--10--|--------------------------|
---------------------------------|--9h--10p--9--7------5----|
---------------------------------|--------------------------|
---------------------------------|--------------------------|
---------------------------------|--------------------------|


  E  E   E   E   H            E   E   E   E   E   E   E   E    
--------------------------|--/8--10--10--10--10--10--10--10s--|
--------------------------|-----------------------------------|
--L--2h--3p--2h--3--------|-----------------------------------|
--------------------------|-----------------------------------|
--------------------------|-----------------------------------|
--------------------------|-----------------------------------|


   E   E   E   E   E   E   E   E      E   E   E   E   E   E   E   E   
--12--12--12--12--13--13--13--13--|----------------------------------|
----------------------------------|--10--10--10--10--13--13--13--13--|
----------------------------------|----------------------------------|
----------------------------------|----------------------------------|
----------------------------------|----------------------------------|
----------------------------------|----------------------------------|


  E  E  E  E   E   E   E   E     E    E   E   E  E   E  E   E   
------------------------------|--------------------------------|
--8--8--8--8--10--10--10--10--|--------------------------------|
------------------------------|--9h--10p--9-------------9--10--|
------------------------------|--------------10--7--10---------|
------------------------------|--------------------------------|
------------------------------|--------------------------------|


  E   E   E    E   E    E   E    E      E    E   E   E   E   E   E   E   
------------------------------------|-----------------------------------|
--8--10--13p--10--13p--10--13p--10--|--13s--15--15--15--15--15--15--15--|
------------------------------------|-----------------------------------|
------------------------------------|-----------------------------------|
------------------------------------|-----------------------------------|
------------------------------------|-----------------------------------|


   E   E   E   E   E   E   E   E      E   E   E   E   E   E   E   E   
----------------------------------|--13--13--13--13--13--13--13--13--|
--15--15--15--15--17--17--17--17--|----------------------------------|
----------------------------------|----------------------------------|
----------------------------------|----------------------------------|
----------------------------------|----------------------------------|
----------------------------------|----------------------------------|


   E   E   E   E   E   E   E   E      E   E   E   E   E   E   E   E   
--15--15--15--15--15--15--15--15--|--17--17--17--15--15--15--13--13--|
----------------------------------|----------------------------------|
----------------------------------|----------------------------------|
----------------------------------|----------------------------------|
----------------------------------|----------------------------------|
----------------------------------|----------------------------------|


   E   E   E   E   E   E   E   E     E   E   E   E   E   E   E   E   
--13--12--12--12--12--12--12--12--|--8--10--10--10--10--10--10--10--|
----------------------------------|---------------------------------|
----------------------------------|---------------------------------|
----------------------------------|---------------------------------|
----------------------------------|---------------------------------|
----------------------------------|---------------------------------|


   E  E   E   E   E   E   Q         E   E   E   Q.     Q     
--10---------------------------|--/12--13--12--10------8----|
------8--10--10--10--10--10----|----------------------------|
-------------------------------|----------------------------|
-------------------------------|----------------------------|
-------------------------------|----------------------------|
-------------------------------|----------------------------|


  E  E   E   E  E  Q.        H        H            H.            E   E    
--L-----------------------|--5--------L~--------|--L---------------------|
-----5h--6p--5------------|--6--------L~--------|--L---------------------|
----------------5--2------|--2--------L---------|--L------------12--12s--|
--------------------------|--0--------L---------|--L-------------x---x---|
--------------------------|---------------------|---------------10--10s--|
--------------------------|---------------------|------------------------|


   E   E   Q       Q.     Q.     Q       H        Q    Q     
----------------|---------------------|---------------------|
----------------|---------------------|---------------------|
--14--14--14----|----------------7----|--L--------7----7----|
---x---x---x----|----------------8----|--L--------8----8----|
--12--12--12----|---------8------8----|--L--------8----8----|
----------------|--8-------------8----|--L--------8----8----|


  Q.     Q.     Q       H        Q    Q       Q.     Q.     Q     
---------------------|---------------------|---------------------|
---------------------|---------------------|---------------------|
---------7------7----|--L--------7----7----|----------------7----|
---------7------5----|--L--------5----5----|----------------8----|
---------5------5----|--L--------5----5----|---------8------8----|
--5-------------5----|--L--------5----5----|--8-------------8----|


  H        Q    Q       Q.     Q.     Q       H        Q    Q     
---------------------|---------------------|---------------------|
---------------------|---------------------|---------------------|
--L--------7----7----|----------------2----|--L--------2----2----|
--L--------8----8----|----------------3----|--L--------3----3----|
--L--------8----8----|---------3------3----|--L--------3----3----|
--L--------8----8----|--3-------------3----|--L--------3----3----|


  E  E  E  E  E  E  E  E     E  E  E  E  E  E  E  E   
--------------------------|--------------------------|
--------------------------|--------------------------|
--7--7--7--7--7--7--7--7--|--7--7--7--7--7--7--7--7--|
--8--8--8--8--8--8--8--8--|--8--8--8--8--8--8--8--8--|
--8--8--8--8--8--8--8--8--|--8--8--8--8--8--8--8--8--|
--8--8--8--8--8--8--8--8--|--8--8--8--8--8--8--8--8--|


  E  E  E  E  E  E  E  E     E  E  E  E  E  E  E  E   
--------------------------|--------------------------|
--------------------------|--------------------------|
--7--7--7--7--7--7--7--7--|--7--7--7--7--7--7--7--7--|
--5--5--5--5--5--5--5--5--|--5--5--5--5--5--5--5--5--|
--5--5--5--5--5--5--5--5--|--5--5--5--5--5--5--5--5--|
--5--5--5--5--5--5--5--5--|--5--5--5--5--5--5--5--5--|


  E  E  E  E  E  E  E  E     E  E  E  E  E  E  E  E   
--------------------------|--------------------------|
--------------------------|--------------------------|
--7--7--7--7--7--7--7--7--|--7--7--7--7--7--7--7--7--|
--8--8--8--8--8--8--8--8--|--8--8--8--8--8--8--8--8--|
--8--8--8--8--8--8--8--8--|--8--8--8--8--8--8--8--8--|
--8--8--8--8--8--8--8--8--|--8--8--8--8--8--8--8--8--|


  E  E  E  E  E  E  E  E     E  E  E   E   E    E   E   E   
--------------------------|--------------------------------|
--------------------------|--------------------------------|
--2--2--2--2--2--2--2--2--|--2--2--2--12--12s--14--14--14--|
--3--3--3--3--3--3--3--3--|--3--3--3---x---x----x---x---x--|
--3--3--3--3--3--3--3--3--|--3--3--3--10--10s--12--12--12--|
--3--3--3--3--3--3--3--3--|--3--3--3-----------------------|


  E  E  E  E  E  E  E  E     E  E  E   E   E    E   E   E   
--------------------------|--------------------------------|
--------------------------|--------------------------------|
--7--7--7--7--7--7--7--7--|--7--7--7--12--12s--14--14--14--|
--8--8--8--8--8--8--8--8--|--8--8--8---x---x----x---x---x--|
--8--8--8--8--8--8--8--8--|--8--8--8--10--10s--12--12--12--|
--8--8--8--8--8--8--8--8--|--8--8--8-----------------------|


  E  E  E  E  E  E  E  E     E  E  E   E   E    E   E   E   
--------------------------|--------------------------------|
--------------------------|--------------------------------|
--7--7--7--7--7--7--7--7--|--7--7--7--12--12s--14--14--14--|
--5--5--5--5--5--5--5--5--|--5--5--5---x---x----x---x---x--|
--5--5--5--5--5--5--5--5--|--5--5--5--10--10s--12--12--12--|
--5--5--5--5--5--5--5--5--|--5--5--5-----------------------|


  E  E  E  E  E  E  E  E     E  E  E  E  E    E   Q     
--------------------------|----------------------------|
--------------------------|----------------------------|
--7--7--7--7--7--7--7--7--|--7--7--7--9--9s--10s--9----|
--8--8--8--8--8--8--8--8--|--8--8--8--x--x----x---x----|
--8--8--8--8--8--8--8--8--|--8--8--8--7--7s---8s--7----|
--8--8--8--8--8--8--8--8--|--8--8--8-------------------|


  E  E  E  E  E  E  E  E     E  E  E   E   E    E   E   E   
--------------------------|--------------------------------|
--------------------------|--------------------------------|
--2--2--2--2--2--2--2--2--|--2--2--2--12--12s--14--14--14--|
--3--3--3--3--3--3--3--3--|--3--3--3---x---x----x---x---x--|
--3--3--3--3--3--3--3--3--|--3--3--3--10--10s--12--12--12--|
--3--3--3--3--3--3--3--3--|--3--3--3-----------------------|


  E  E  E  E  E  E  E  E     E  E  E   E   E    E   E   E   
--------------------------|--------------------------------|
--------------------------|--------------------------------|
--7--7--7--7--7--7--7--7--|--7--7--7--12--12s--14--14--14--|
--8--8--8--8--8--8--8--8--|--8--8--8---x---x----x---x---x--|
--8--8--8--8--8--8--8--8--|--8--8--8--10--10s--12--12--12--|
--8--8--8--8--8--8--8--8--|--8--8--8-----------------------|


  E  E  E  E  E  E  E  E     E  E  E   E   E    E   E   E   
--------------------------|--------------------------------|
--------------------------|--------------------------------|
--7--7--7--7--7--7--7--7--|--7--7--7--12--12s--14--14--14--|
--5--5--5--5--5--5--5--5--|--5--5--5---x---x----x---x---x--|
--5--5--5--5--5--5--5--5--|--5--5--5--10--10s--12--12--12--|
--5--5--5--5--5--5--5--5--|--5--5--5-----------------------|


  E  E  E  E  E  E  E  E     E  E  E  E  E    E   Q       Q.     Q.     Q     
--------------------------|----------------------------|---------------------|
--------------------------|----------------------------|---------------------|
--7--7--7--7--7--7--7--7--|--7--7--7--9--9s--10s--9----|--2------2------2----|
--8--8--8--8--8--8--8--8--|--8--8--8--x--x----x---x----|--3------3------3----|
--8--8--8--8--8--8--8--8--|--8--8--8--7--7s---8s--7----|--3------3------3----|
--8--8--8--8--8--8--8--8--|--8--8--8-------------------|--3------3------3----|


  E  Q.     Q    Q       W                   W                 
----------------------|-------------------|-------------------|
----------------------|-------------------|-------------------|
--L--2------2----2----|-------------------|-------------------|
--L--3------3----3----|--0----------------|--L----------------|
--L--3------3----3----|--0----------------|--L----------------|
--L--3------3----3----|--0----------------|--L----------------|


                                          PM PM PM PM PM   PM PM PM PM PM    
  W                   W                   S  S  S  S  Q    S  S  S  S  Q     
-------------------|-------------------|------------------------------------|
-------------------|-------------------|------------------------------------|
-------------------|-------------------|------------------------------------|
--L----------------|--L----------------|--0--0--0--0--0----0--0--0--0--0----|
--L----------------|--L----------------|--0--0--0--0--0----0--0--0--0--0----|
--L----------------|--L----------------|--0--0--0--0--0----0--0--0--0--0----|


     PM PM               PM PM PM PM PM   PM PM PM PM PM    
  E  E  Q    H           S  S  S  S  Q    S  S  S  S  Q     
----------------------|------------------------------------|
----------------------|------------------------------------|
----------------------|------------------------------------|
-----0--0-------------|--0--0--0--0--0----0--0--0--0--0----|
-----0--0-------------|--0--0--0--0--0----0--0--0--0--0----|
-----0--0-------------|--0--0--0--0--0----0--0--0--0--0----|


     PM PM               PM PM PM PM PM   PM PM PM PM PM    
  E  E  Q    H           S  S  S  S  Q    S  S  S  S  Q     
----------------------|------------------------------------|
----------------------|------------------------------------|
----------------------|------------------------------------|
-----0--0-------------|--0--0--0--0--0----0--0--0--0--0----|
-----0--0-------------|--0--0--0--0--0----0--0--0--0--0----|
-----0--0-------------|--0--0--0--0--0----0--0--0--0--0----|


     PM PM               PM PM PM PM PM   PM PM PM PM PM                        
  E  E  Q    H           S  S  S  S  Q    S  S  S  S  Q       W                 
----------------------|------------------------------------|-------------------|
----------------------|------------------------------------|-------------------|
----------------------|------------------------------------|-------------------|
-----0--0-------------|--0--0--0--0--0----0--0--0--0--0----|-------------------|
-----0--0-------------|--0--0--0--0--0----0--0--0--0--0----|-------------------|
-----0--0-------------|--0--0--0--0--0----0--0--0--0--0----|-------------------|


  Im not sure if these are right...                             
  PM                                PM PM PM PM                 
  S                                 S  S  S  Q    E   E  E  E   
---------------------------------------------------------------|
---------------------------------------------------------------|
---------------------------------------------------------------|
--0---------------------------------0--0--0--0----0s--5--5--3--|
--0---------------------------------0--0--0--0----x---x--x--x--|
--0---------------------------------0--0--0--0----3s--8--8--7--|


                      PM PM PM PM PM                                     
  W                   S  S  S  S  Q    E   E  E  E     W                 
-------------------|--------------------------------|-------------------|
-------------------|--------------------------------|-------------------|
-------------------|--------------------------------|-------------------|
--2----------------|--0--0--0--0--0----0s--5--5--3--|--2----------------|
--x----------------|--0--0--0--0--0----x---x--x--x--|--x----------------|
--5----------------|--0--0--0--0--0----3s--8--8--7--|--5----------------|


  PM PM PM PM PM                                     
  S  S  S  S  Q    E   E  E  E     W                 
--------------------------------|-------------------|
--------------------------------|-------------------|
--------------------------------|-------------------|
--0--0--0--0--0----0s--5--5--3--|--2----------------|
--0--0--0--0--0----x---x--x--x--|--x----------------|
--0--0--0--0--0----3s--8--8--7--|--5----------------|


  PM PM PM PM PM                                     
  S  S  S  S  Q    E   E  E  E     W                 
--------------------------------|-------------------|
--------------------------------|-------------------|
--------------------------------|-------------------|
--0--0--0--0--0----0s--5--5--3--|--2----------------|
--0--0--0--0--0----x---x--x--x--|--x----------------|
--0--0--0--0--0----3s--8--8--7--|--5----------------|


  PM PM PM PM PM PM PM PM                                      
                          |-----3----|                         
  S  S  S  S  S  S  S  S  Q     Q    Q       W                 
------------------------------------------|-------------------|
------------------------------------------|-------------------|
------------------------------------------|-------------------|
--0--0--0--0--0--0--0--0--0s----5----3----|--2----------------|
--0--0--0--0--0--0--0--0--x-----x----x----|--x----------------|
--0--0--0--0--0--0--0--0--3s----8----7----|--5----------------|


  E   H.           E    
----------------------||
----------------------||
----------------------||
--L\------------------||
--x-------------------||
--L\------------------||

Guitar 2
      E   E   E   E   E   E   E   E      E   E   E   E   E   E   E   E   
E||----------------------------------|----------------------------------|
B||----------------------------------|----------------------------------|
G||--10--10--10--10--10--10--10--10--|--10--10--10--10--10--10--10--10--|
D||---x---x---x---x---x---x---x---x--|---x---x---x---x---x---x---x---x--|
A||---8---8---8---8---8---8---8---8--|---8---8---8---8---8---8---8---8--|
D||---0---0---0---0---0---0---0---0--|---0---0---0---0---0---0---0---0--|


  E  E  E  E  E  E  E  E     E  E  E  E  E  E  E  E   
--------------------------|--------------------------|
--------------------------|--------------------------|
--9--9--9--9--9--9--9--9--|--9--9--9--9--9--9--9--9--|
--x--x--x--x--x--x--x--x--|--x--x--x--x--x--x--x--x--|
--7--7--7--7--7--7--7--7--|--7--7--7--7--7--7--7--7--|
--0--0--0--0--0--0--0--0--|--0--0--0--0--0--0--0--0--|


  E  E  E  E  E  E  E  E     E  E  E  E  E  E  E  E   
--------------------------|--------------------------|
--------------------------|--------------------------|
--5--5--5--5--5--5--5--5--|--5--5--5--5--5--5--5--5--|
--x--x--x--x--x--x--x--x--|--x--x--x--x--x--x--x--x--|
--3--3--3--3--3--3--3--3--|--3--3--3--3--3--3--3--3--|
--0--0--0--0--0--0--0--0--|--0--0--0--0--0--0--0--0--|


  E  E  E  E  E  E  E  E     E  E  E  E  E  E  E  E   
--------------------------|--------------------------|
--------------------------|--------------------------|
--7--7--7--7--7--7--7--7--|--7--7--7--7--7--7--7--7--|
--x--x--x--x--x--x--x--x--|--x--x--x--x--x--x--x--x--|
--5--5--5--5--5--5--5--5--|--5--5--5--5--5--5--5--5--|
--0--0--0--0--0--0--0--0--|--0--0--0--0--0--0--0--0--|


   E   E   E   E   E   E   E   E      E   E   E   E   E   E   E   E   
----------------------------------|----------------------------------|
----------------------------------|----------------------------------|
--10--10--10--10--10--10--10--10--|--10--10--10--10--10--10--10--10--|
---x---x---x---x---x---x---x---x--|---x---x---x---x---x---x---x---x--|
---8---8---8---8---8---8---8---8--|---8---8---8---8---8---8---8---8--|
---0---0---0---0---0---0---0---0--|---0---0---0---0---0---0---0---0--|


  E  E  E  E  E  E  E  E     E  E  E  E  E  E  E  E   
--------------------------|--------------------------|
--------------------------|--------------------------|
--9--9--9--9--9--9--9--9--|--9--9--9--9--9--9--9--9--|
--x--x--x--x--x--x--x--x--|--x--x--x--x--x--x--x--x--|
--7--7--7--7--7--7--7--7--|--7--7--7--7--7--7--7--7--|
--0--0--0--0--0--0--0--0--|--0--0--0--0--0--0--0--0--|


   E   E   E   E   E   E   E   E      E   E   E   E   E   E   E   E   
----------------------------------|----------------------------------|
--13--13--13--13--13--13--13--13--|--13--13--13--13--13--13--13--13--|
---x---x---x---x---x---x---x---x--|---x---x---x---x---x---x---x---x--|
--10--10--10--10--10--10--10--10--|--10--10--10--10--10--10--10--10--|
---x---x---x---x---x---x---x---x--|---x---x---x---x---x---x---x---x--|
---0---0---0---0---0---0---0---0--|---0---0---0---0---0---0---0---0--|


   E   E   E   E   E   E   E   E      E   E   E   E   E   E   E   E   
----------------------------------|----------------------------------|
----------------------------------|----------------------------------|
--14--14--14--14--14--14--14--14--|--14--14--14--14--14--14--14--14--|
---x---x---x---x---x---x---x---x--|---x---x---x---x---x---x---x---x--|
--12--12--12--12--12--12--12--12--|--12--12--12--12--12--12--12--12--|
---0---0---0---0---0---0---0---0--|---0---0---0---0---0---0---0---0--|


  W                   H.           E   E       W                 
-------------------|-----------------------|--------------------|
--6----------------|--L------------6---8---|---8----------------|
--9----------------|--L------------L--(9)--|---L----------------|
-------------------|-----------------------|--------------------|
-------------------|-----------------------|--------------------|
-------------------|-----------------------|--------------------|


  H.            E   E       W                   H.            E    E   
------------------------|--------------------|------------------------|
--L-------------8--10---|--10----------------|--L------------10---13--|
--L-------------L--(9)--|---L----------------|--L------------(9)---L--|
------------------------|--------------------|------------------------|
------------------------|--------------------|------------------------|
------------------------|--------------------|------------------------|


   H.            E   E      W                  
------------------------|---------------------|
--13------------13--15--|--15-----------------|
---L-------------L---L--|--(9)----------------|
------------------------|---------------------|
------------------------|---------------------|
------------------------|---------------------|


   E   E   S   S   E    S   S   E    E   E   
--------------------------------------------|
--(6)-----(3)----------(3)----------(6)-----|
--------------(2)----------(2)--------------|
------------------(3)----------(3)----------|
--------------------------------------------|
--------------------------------------------|


  E    E    E     E    E     E    E    E    
-------------------------------------------|
---------------------------------(8)--(5)--|
-----(10)--(9)p--(0)--(5)p--(0)------------|
-------------------------------------------|
-------------------------------------------|
-------------------------------------------|


   E   E   S   S   E    S   S   E    E   E   
--------------------------------------------|
--(6)-----(3)----------(3)----------(6)-----|
--------------(2)----------(2)--------------|
------------------(3)----------(3)----------|
--------------------------------------------|
--------------------------------------------|


  E    E    E     E    E     E    E    E      W                 
-------------------------------------------|--5----------------|
---------------------------------(8)--(5)--|--6----------------|
-----(10)--(9)p--(0)--(5)p--(0)------------|--2----------------|
-------------------------------------------|--0----------------|
-------------------------------------------|-------------------|
-------------------------------------------|-------------------|


  H.           E.  S     W                   W                 
--L------------L---LS-|--3----------------|--L----------------|
--L------------L---LS-|--5----------------|--L----------------|
--L------------L---LS-|--0----------------|--L----------------|
--L------------L---L--|--0----------------|--L----------------|
----------------------|-------------------|-------------------|
----------------------|-------------------|-------------------|


   E   E   S   S   E    S   S   E    E   E   
--------------------------------------------|
--(6)-----(3)----------(3)----------(6)-----|
--------------(2)----------(2)--------------|
------------------(3)----------(3)----------|
--------------------------------------------|
--------------------------------------------|


  E    E    E     E    E     E    E    E    
-------------------------------------------|
---------------------------------(8)--(5)--|
-----(10)--(9)p--(0)--(5)p--(0)------------|
-------------------------------------------|
-------------------------------------------|
-------------------------------------------|


   E   E   S   S   E    S   S   E    E   E   
--------------------------------------------|
--(6)-----(3)----------(3)----------(6)-----|
--------------(2)----------(2)--------------|
------------------(3)----------(3)----------|
--------------------------------------------|
--------------------------------------------|


  E    E    E     E    E     E    E    E      W                 
-------------------------------------------|--5----------------|
---------------------------------(8)--(5)--|--6----------------|
-----(10)--(9)p--(0)--(5)p--(0)------------|--2----------------|
-------------------------------------------|--0----------------|
-------------------------------------------|-------------------|
-------------------------------------------|-------------------|


  H.           E.  S     W                   W                 
--L------------L---LS-|--3----------------|--L----------------|
--L------------L---LS-|--5----------------|--L----------------|
--L------------L---LS-|--0----------------|--L----------------|
--L------------L---L--|--0----------------|--L----------------|
----------------------|-------------------|-------------------|
----------------------|-------------------|-------------------|


   E  E   E  E   E  E   E  E      E  E   E  E   E  E   E  E   
---8------8------8------8-----|---8------8------8------8-----|
--10-----10-----10-----10-----|--10-----10-----10-----10-----|
------------------------------|------------------------------|
------------------------------|------------------------------|
------------------------------|------------------------------|
------------------------------|------------------------------|


  E  E  E  E  E  E  E  E     E  E  E  E  E  E  E  E   
--3-----3-----3-----3-----|--3-----3-----3-----3-----|
--5-----5-----5-----5-----|--5-----5-----5-----5-----|
--------------------------|--------------------------|
--------------------------|--------------------------|
--------------------------|--------------------------|
--------------------------|--------------------------|


   E  E   E  E   E  E   E  E      E  E   E  E   E  E   E  E   
---8------8------8------8-----|---8------8------8------8-----|
--10-----10-----10-----10-----|--10-----10-----10-----10-----|
------------------------------|------------------------------|
------------------------------|------------------------------|
------------------------------|------------------------------|
------------------------------|------------------------------|


  E  E  E  E  E  E  E  E     E  E  E  E  E  E  E  E   
--3-----3-----3-----3-----|--3-----3-----3-----3-----|
--5-----5-----5-----5-----|--5-----5-----5-----5-----|
--------------------------|--------------------------|
--------------------------|--------------------------|
--------------------------|--------------------------|
--------------------------|--------------------------|


   E  E   E  E   E  E   E  E      E  E   E  E   E  E   E  E   
---8------8------8------8-----|---8------8------8------8-----|
--10-----10-----10-----10-----|--10-----10-----10-----10-----|
------------------------------|------------------------------|
------------------------------|------------------------------|
------------------------------|------------------------------|
------------------------------|------------------------------|


  E  E  E  E  E  E  E  E     E  E  E  E  E  E  E  E   
--3-----3-----3-----3-----|--3-----3-----3-----3-----|
--5-----5-----5-----5-----|--5-----5-----5-----5-----|
--------------------------|--------------------------|
--------------------------|--------------------------|
--------------------------|--------------------------|
--------------------------|--------------------------|


   E  E   E  E   E  E   E  E      E  E   E  E   E  E   E  E   
---8------8------8------8-----|---8------8------8------8-----|
--10-----10-----10-----10-----|--10-----10-----10-----10-----|
------------------------------|------------------------------|
------------------------------|------------------------------|
------------------------------|------------------------------|
------------------------------|------------------------------|


  E  E  E  E  E  E  E  E     E  E  E  E  E  E  E  E   
--3-----3-----3-----3-----|--3-----3-----3-----3-----|
--5-----5-----5-----5-----|--5-----5-----5-----5-----|
--------------------------|--------------------------|
--------------------------|--------------------------|
--------------------------|--------------------------|
--------------------------|--------------------------|


  S S S S S S S S S S S S S S S S    S S E   E   E  E   E   E   E   
----------------------------------|-----------------8------12------|
--8-x-x-x-x-x-x-x-x-x-x-x-x-x-x-x-|--x-x-6h--8p--6-----10------10--|
----------------------------------|--------------------------------|
----------------------------------|--------------------------------|
----------------------------------|--------------------------------|
----------------------------------|--------------------------------|


                                                 PM PM         
  E   E   E   E   E   E   E   E      E   E  Q    E  E  Q       
--8------12----------12----------|--15-----------------5br----|
-----10------13--10------13--10--|------10--0-------3---------|
---------------------------------|----------x----3------------|
---------------------------------|----------8-----------------|
---------------------------------|----------------------------|
---------------------------------|----------------------------|


  PM PM PM PM       PM PM    PM PM       PM PM        
  E  E  E  E  E  E  E  E     E  E  E  E  E  E  E  E   
--------------5--5--------|--------5--5--------5--5--|
--------3--3--------------|--3--3--------------------|
--3--3--------------3--3--|--------------3--3--------|
--------------------------|--------------------------|
--------------------------|--------------------------|
--------------------------|--------------------------|


  PM PM       PM PM          PM PM       PM PM                                 
  E  E  E  E  E  E  E  E     E  E  E  E  E  E  E  E     E  Q    E  Q    E  E   
--------8--8--------8--8--|--------5--5--------5--5--|------------------------|
--3--3--------3--3--------|--3--3--------3--3--------|------------------------|
--------------------------|--------------------------|--7-------7-------7-----|
--------------------------|--------------------------|--8-------8-------8-----|
--------------------------|--------------------------|--5-------5-------5-----|
--------------------------|--------------------------|------------------------|


  H        E  E  Q       E  H        E  E  E     H.           E  E   
----------------------|-----------------------|---------------------|
-----------6--6--6----|-----------------------|---------------------|
-----------3--3--3----|--7--------------7-----|---------------7-----|
-----------0--0--0----|--8--------------8-----|---------------8-----|
----------------------|--5--------------5-----|---------------5-----|
----------------------|-----------------------|---------------------|


   E   E   E   E   E   E   E   E      E   E   E   E   E   E   E   E   
----------------------------------|----------------------------------|
----------------------------------|----------------------------------|
--10--10--10--10--10--10--10--10--|--10--10--10--10--10--10--10--10--|
---x---x---x---x---x---x---x---x--|---x---x---x---x---x---x---x---x--|
---8---8---8---8---8---8---8---8--|---8---8---8---8---8---8---8---8--|
---0---0---0---0---0---0---0---0--|---0---0---0---0---0---0---0---0--|


  E  E  E  E  E  E  E  E     E  E  E  E  E  E  E  E   
--------------------------|--------------------------|
--------------------------|--------------------------|
--9--9--9--9--9--9--9--9--|--9--9--9--9--9--9--9--9--|
--x--x--x--x--x--x--x--x--|--x--x--x--x--x--x--x--x--|
--7--7--7--7--7--7--7--7--|--7--7--7--7--7--7--7--7--|
--0--0--0--0--0--0--0--0--|--0--0--0--0--0--0--0--0--|


  E  E  E  E  E  E  E  E     E  E  E  E  E  E  E  E   
--------------------------|--------------------------|
--------------------------|--------------------------|
--5--5--5--5--5--5--5--5--|--5--5--5--5--5--5--5--5--|
--x--x--x--x--x--x--x--x--|--x--x--x--x--x--x--x--x--|
--3--3--3--3--3--3--3--3--|--3--3--3--3--3--3--3--3--|
--0--0--0--0--0--0--0--0--|--0--0--0--0--0--0--0--0--|


  E  E  E  E  E  E  E  E     E  E  E  E  E  E  E  E   
--------------------------|--------------------------|
--------------------------|--------------------------|
--7--7--7--7--7--7--7--7--|--7--7--7--7--7--7--7--7--|
--x--x--x--x--x--x--x--x--|--x--x--x--x--x--x--x--x--|
--5--5--5--5--5--5--5--5--|--5--5--5--5--5--5--5--5--|
--0--0--0--0--0--0--0--0--|--0--0--0--0--0--0--0--0--|


   E   E   E   E   E   E   E   E      E   E   E   E   E   E   E   E   
----------------------------------|----------------------------------|
----------------------------------|----------------------------------|
--10--10--10--10--10--10--10--10--|--10--10--10--10--10--10--10--10--|
---x---x---x---x---x---x---x---x--|---x---x---x---x---x---x---x---x--|
---8---8---8---8---8---8---8---8--|---8---8---8---8---8---8---8---8--|
---0---0---0---0---0---0---0---0--|---0---0---0---0---0---0---0---0--|


  E  E  E  E  E  E  E  E     E  E  E  E  E  E  E  E   
--------------------------|--------------------------|
--------------------------|--------------------------|
--9--9--9--9--9--9--9--9--|--9--9--9--9--9--9--9--9--|
--x--x--x--x--x--x--x--x--|--x--x--x--x--x--x--x--x--|
--7--7--7--7--7--7--7--7--|--7--7--7--7--7--7--7--7--|
--0--0--0--0--0--0--0--0--|--0--0--0--0--0--0--0--0--|


   E   E   E   E   E   E   E   E      E   E   E   E   E   E   E   E   
----------------------------------|----------------------------------|
--13--13--13--13--13--13--13--13--|--13--13--13--13--13--13--13--13--|
---x---x---x---x---x---x---x---x--|---x---x---x---x---x---x---x---x--|
--10--10--10--10--10--10--10--10--|--10--10--10--10--10--10--10--10--|
---x---x---x---x---x---x---x---x--|---x---x---x---x---x---x---x---x--|
---0---0---0---0---0---0---0---0--|---0---0---0---0---0---0---0---0--|


   E   E   E   E   E   E   E   E      E   E   E   E   E   E   E   E   
----------------------------------|----------------------------------|
----------------------------------|----------------------------------|
--14--14--14--14--14--14--14--14--|--14--14--14--14--14--14--14--14--|
---x---x---x---x---x---x---x---x--|---x---x---x---x---x---x---x---x--|
--12--12--12--12--12--12--12--12--|--12--12--12--12--12--12--12--12--|
---0---0---0---0---0---0---0---0--|---0---0---0---0---0---0---0---0--|


  E   E   E   E    E   E    E   E     E   E   E   E    E   E    E   E   
--8-------5-------13-----------12--|--8-------5-------13-----------12--|
-----(8)-----(8)------(8)--10------|-----(8)-----(8)------(8)--10------|
-----------------------------------|-----------------------------------|
-----------------------------------|-----------------------------------|
-----------------------------------|-----------------------------------|
-----------------------------------|-----------------------------------|


  E   E   E   E    E   E    E   E     E   E   E   Q      E    E   E   
--8-------5-------13-----------12--|--8-------5------------------12--|
-----(8)-----(8)------(8)--10------|-----(8)-----(8)----(8)--10------|
-----------------------------------|---------------------------------|
-----------------------------------|---------------------------------|
-----------------------------------|---------------------------------|
-----------------------------------|---------------------------------|


  E   E   E   Q      E    E   E     E   E   E   Q      E    E   E   
--8-------5------------------12--|--8-------5------------------12--|
-----(8)-----(8)----(8)--10------|-----(8)-----(8)----(8)--10------|
---------------------------------|---------------------------------|
---------------------------------|---------------------------------|
---------------------------------|---------------------------------|
---------------------------------|---------------------------------|


  E   E   E   E    E   E    E   E     E   E    E  H        E   
--8-------5-------13-----------12--|--8-----------------------|
-----(8)-----(8)------(8)--10------|-----(8)--10--8--------L--|
-----------------------------------|--------------------------|
-----------------------------------|--------------------------|
-----------------------------------|--------------------------|
-----------------------------------|--------------------------|


   E   E   E   E   E   E   E   E      E   E   E   E   E   E   E   E   
------10----------13----------15--|------13----------12------12------|
--10------10--13------13--13------|--13------13--13------13------13--|
----------------------------------|----------------------------------|
----------------------------------|----------------------------------|
----------------------------------|----------------------------------|
----------------------------------|----------------------------------|


   E   E   E   E   E   E   E   E      E   E   E   H        E   
------10----------13----------15--|------13------12--------L--|
--10------10--13------13--13------|--13------13---------------|
----------------------------------|---------------------------|
----------------------------------|---------------------------|
----------------------------------|---------------------------|
----------------------------------|---------------------------|


   E   E   E   E   E   E   E   E      E   E   E   E   E    E    E   E   
------10----------13----------15--|------13----------12h--13p--12------|
--10------10--13------13--13------|--13------13--13----------------13--|
----------------------------------|------------------------------------|
----------------------------------|------------------------------------|
----------------------------------|------------------------------------|
----------------------------------|------------------------------------|


   E   E   E   E   E   E   E   E      E   E   E   H        E   
------10----------13----------15--|------13------12--------L--|
--10------10--13------13--13------|--13------13---------------|
----------------------------------|---------------------------|
----------------------------------|---------------------------|
----------------------------------|---------------------------|
----------------------------------|---------------------------|


   E   E   E   E   E   E   E   E      E   E   E   E   E   E   E   E   
---8---8---8---8---8---8---8---8--|---8---8---8---8---8---8---8---8--|
--10--10--10--10--10--10--10--10--|--10--10--10--10--10--10--10--10--|
----------------------------------|----------------------------------|
----------------------------------|----------------------------------|
----------------------------------|----------------------------------|
----------------------------------|----------------------------------|


   E   E   E   E   E   E   E   E      E   E   E   E   E   E   E   E   
---8---8---8---8---8---8---8---8--|---8---8---8---8---8---8---8---8--|
--10--10--10--10--10--10--10--10--|--10--10--10--10--10--10--10--10--|
----------------------------------|----------------------------------|
--------------------
Добавлено: 17.06.2012
Другие материалы по этой песне:

Страница создана 13.03.2012
http://primanota.ru/dance-gavin-dance/and-i-told-them-i-invented-times-new-roman-chords.htm
Привет, Гость.
Предлагаем пройти революционный курс по гитаре.
Подарок от PrimaNota.Ru, забирай!