PrimaNota.ru - самый крупный в мире бесплатный архив песенных текстов, аккордов, табулатур и нот


Dance Gavin Dance - Stroke God Millionaire - бас-таба, видео

Регистрация Запомнить меня
Войти через:  Facebook Google Twitter Vk Yandex Mail.ru

Dance Gavin Dance - Stroke God Millionaire - бас-таба, видео

Печатать
Просмотров: 95
-------------------------------------------------------------------------------
                             Stroke God Millionaire - Dance Gavin Dance
-------------------------------------------------------------------------------
Tabbed by: akarandomhero

No one has any bass tabs for the album Instant Gratification, so here's my shot at
Stroke God Millionaire, track #2 off the album

Tuning:Half Step down D# G# C# F#

Intro 0:15
F#|-----------------------------------------------------7-h9------------------|
C#|-----------------------------------------------7-h9------------------------|
G#|---------------------------------------------------------------------------|
D#|---0000-0-7-7-7-5-5-5/12---0000-0-7-7-7-5-5-5------------------------------|

0:41 "I'm in love with the feeling that I'm loved..."
G|---------------------------------------------------------------------------|
D|---------------------------------------------------------------------------|
A|-----------------7-7--7--7-7--7-----------------7\4------------------------|
E|---5-5-5--5555-------------------5-5-5--5555\2-----------------------------|

0:50 "take my money, take all that I've got"
G|---------------------------------------------------------------------------|
D|---------------------------------------------------------------------------|
A|--------------7-7--7--7-7--7---------------7\4-------5-7-2-5-3---2---0-----|
E|--5-5-5-5555-----------------5-5-5-5555\2------5\2-------------------------|

1:00 "day day day dreaming of a taste I can't hold back..."
G|-------------------------------------------------------------7-h9----------|
D|--------------------------------------------------------7-h9---------------|
A|--000000-------------------------------------------------------------------|
E|---------0000-0-7-7-7--5-5-5/12---00000--7-7-7---5-5-5---------------------|

1:09 "top of the tumor.."
G|---------------------------------------------------------------------------|
D|---------------------------------------------------------------------------|
A|---------------------------------------------------------------------------|
E|--0000-0--7-7-7--5-5-5/12----0000-0--7-7-7--5-5-5--------------------------|

1:15 "I'm in love with the feeling that I'm loved.."
G|---------------------------------------------------------------------------|
D|---------------------------------------------------------------------------|
A|--------------7-7-7--7-7--7---------------7\4------------------------------|
E|---5-5-5-5555---------------5-5-5-5555\2-----------------------------------|

1:28 Listen for the rhythm here (its kind of quiet but very distinct)
G|---------------------------------------------------------------------------|
D|---------------------------------------------------------------------------|
A|--7---5-7------5-5------5--------7---5-7------5-5--------------------------|
E|----7-----7--------5-7----5--7------7-----7---------5-7--------------------|

1:58 "and we can get it in the open.."
G|---------------------------------------------------------------------------|
D|----------------------------------------------------------5----------------|
A|-------------------------------------------------------7-------------------|
E|---8--88888-8--5-555-555-5-5--8-88888-8--5-5-5---3-h5----------------------|

2:36 "baby let me blow your mind..."
G|---------------------------------------------------------------------------|
D|--------------------------------------5-h7---------------------------------|
A|---------------------------------5-h7--------------------------------------|
E|--8-8-8-8--7-7-7-7--5-5-5-5-5-5--------------8-8-8-8--7-7-7-7--5-5-5-5-5-5\|

2:48 "I have something important too..."
G|---------------------------------------------------------------------------|
D|---------------------------------------------------------------------------|
A|---------------------------------------------------------------------------|
E|---0000-0--7-7-7--5-5-5----------------------------------------------------|

2:51
G|---------------------------------------------------------------------------|
D|---------------------------------------------------------------------------|
A|--------------7-7-7--7-7--7---------------7\4------------------------------|
E|---5-5-5-5555---------------5-5-5-5555\2-----------------------------------|

Outtro 3:00
G|---------------------------------------------------------------------------|
D|---------------------------------------------------------------------------|
A|--------------7-7-7--7-7--7---------------7\4--------5-7-2-5---------------|
E|---5-5-5-5555---------------5-5-5-5555\2-------5\2-------------------------|


| /  slide up
| \  slide down
| h  hammer-on
| p  pull-off
| ~  vibrato
| +  harmonic
| x  Mute note
===============================================================================
Добавлено: 15.04.2016
Вам также может быть интересно:
Другие материалы по этой песне:
  • Аккорды и текст

Страница создана 15.04.2016
http://primanota.ru/dance-gavin-dance/stroke-god-millionaire-chords.htm
Привет, Гость.
Предлагаем пройти революционный курс по гитаре.
Подарок от PrimaNota.Ru, забирай!