PrimaNota.ru - самый крупный в мире бесплатный архив песенных текстов, аккордов, табулатур и нот


Dance Gavin Dance - Alex English - таба, видео

Регистрация Запомнить меня
Войти через:  Facebook Google Twitter Vk Yandex Mail.ru

Dance Gavin Dance - Alex English - таба, видео

Печатать
Просмотров: 214
e|------------------------------------------------------------------9--------|
B|--------------------------------------------------------------9--------9---|
G|----9--6-----6---9--6--7-------10--9--10-- 9--10--9--10-----9---9---9------|
D|-0--------0-----------------7------------7---------------------------------|
A|----------------------------------------------------------7----------------|
D|---------------------------------------------------------------------------|

e|------------7------7------------------------------------------------------|
B|------9--------5------5\--------------------------------------------------|
G|----9---9------------------(x2)-------------------------------------------|
D|--------------------------------------------------------------------------|
A|-7------------------------------------------------------------------------|
D|--------------------------------------------------------------------------|
the parts above start at 3:05
near the end(slow part)then..starting at 3:29...
e|-12(x16)---------------------12(x3)--------------------12(x3)-------------|
B|-----------14(x16)---12(x3)---------14(x10)----12(x3)----------14(x10)----|
G|--------------------------------------------------------------------------|
D|--------------------------------------------------------------------------|
A|--------------------------------------------------------------------------|
D|--------------------------------------------------------------------------|
repeat part above twice...thats all i got for now


| /  slide up
| \  slide down
| h  hammer-on
| p  pull-off
| ~  vibrato
| +  harmonic
| x  Mute note
Добавлено: 24.07.2012
Другие материалы по этой песне:

Страница создана 26.02.2012
http://primanota.ru/dance-gavin-dance/alex-english-chords.htm
Привет, Гость.
Предлагаем пройти революционный курс по гитаре.
Подарок от PrimaNota.Ru, забирай!