PrimaNota.ru - самый крупный в мире бесплатный архив песенных текстов, аккордов, табулатур и нот


Buckethead - Lebrons Hammer - таба, видео

Регистрация Запомнить меня
Войти через:  Facebook Google Twitter Vk Yandex Mail.ru

Buckethead - Lebrons Hammer - таба, видео

Печатать
Просмотров: 194
Intro: 0:00-00:18 x4 (palm mute)

E|----------|----------|----------|----------|
B|----------|----------|----------|----------|
G|-11----11-|----------|----------|----------|
D|----12----|-11----11-|-14----14-|----------|
A|----------|----12----|----16----|-14----14-|
E|----------|----------|----------|----16----|

Part 1: 00:19-00:38 x4

E|-----------------------|---------------------|
B|-----------------------|---------------------|
G|-----------------------|---------------------|
D|-----------------------|---------------------|
A|---4-4-4-----2-4-4h5-4-|-4-4-4-----2-5/7-5-4-|
E|-0h2-2-2-0h2-----------|-2-2-2-0h2-----------|

Part 2: 00:38-00:56 x3

E|---------------|---------------|---------------|----------|
B|---------------|---------------|---------------|----------|
G|---------------|---------------|---------------|----------|
D|-10/7-7--------|-10/7-7--------|-10/7-7--------|-8-10-11--|
A|-10/7-7--------|-10/7-7--------|-10/7-7--------|-8-10-11--|
E|--8/5-55555555-|--8/5-55555555-|--8/5-55555555-|-6--8--9--|

Part 3: 00:56-01:14 x3

E|-----------------------------|-----------------|
B|-----------------------------|-----------------|
G|-----------------------------|-----------------|
D|-----------------------------|-----------------|
A|-2-4-4-4-5-4-----------------|--2-4-4-4-5-4-3--|
E|-0-2-2-2-3-2-2/7\2-2-2-2/7\2-|--0-2-2-2-3-2-1--|

Part 4: 01:14-01:26 x1

E|-------------|
B|-------------|
G|-------------|
D|-------------|
A|-2-4-4-4-5-4-|
E|-0-2-2-2-3-2-|

  Not sure about this part.
E|-------------------------|-------------------------|-------------------------|
B|-------------------------|-------------------------|-------------------------|
G|-------------------------|-------------------------|-------------------------|
D|-------------------------|-------------------------|-------------------------|
A|-------------------------|-------------------------|-------------------------|
E|-0-2-0-3-2-0-5-3-0-7-5-0-|-0-2-0-3-2-0-5-3-0-7-5-0-|-0-2-0-3-2-0-5-3-0-7-5-0-|

E|------------------------------|--------|
B|------------------------------|--------|
G|------------------------------|--------|
D|------------------------------|--------|
A|------------------------------|-11-9-7-|
E|-8-7-0-10-8-0-12-10-0-14-12-0-|--9-7-5-|

Repeat Part 1: 01:26-01:45 x4

Part 5: 01:45-01:57 x1

E|------------------------------------------|--------------------------------|
B|------------------------------------------|--------------------------------|
G|------------------------------------------|--------------------------------|
D|-11-11-11-------9-9-9-------7-7-7-------6-|-11---9---7-7-------7-------7---|
A|--9--9--9-9-9-9-7-7-7-7-7-7-5-5-5-5-5-5-4-|--9---7---5-5---5-5-5---4-4-5---|
E|------------------------------------------|--------------------------------|

Part 6: 01:58-02:15 x3

  Probably sounds like this
E|---------------------------------|-------------------------------|
B|---------2---2-------------------|---------2---2-----------5-----|
G|-----------2---2---4-2---2-1---1-|-----------2---2---4-2-----7-6-|
D|-----4-----------6-----4-----2---|-----4-----------6-----4-------|
A|---4---4-------------------------|---4---4-----------------------|
E|-2-------------------------------|-2-----------------------------|

Part 7: 02:15-02:24 x6

E|-----------------|
B|-----------------|
G|-----------------|
D|-------------2---|
A|-----4---5-------|
E|-0-2---2---2---2-|

Drums: 02:24-02:26

Repeat Part 2: 02:26-02:43 x3

Repeat Part 3: 02:44-03:01 x3

Repeat Part 4: 03:02-03:12 x1

Repeat Part 7: 03:12-03:21 x5

Drums: 03:22-03:23

Solo: 03:23-03:41 
Добавлено: 06.05.2012
Другие материалы по этой песне:

Страница создана 06.05.2012
http://primanota.ru/buckethead/lebrons-hammer-chords.htm
Привет, Гость.
Предлагаем пройти революционный курс по гитаре.
Подарок от PrimaNota.Ru, забирай!