PrimaNota.ru - самый крупный в мире бесплатный архив песенных текстов, аккордов, табулатур и нот


Buckethead - Lotus Island - таба, видео

Регистрация Запомнить меня
Войти через:  Facebook Google Twitter Vk Yandex Mail.ru

Buckethead - Lotus Island - таба, видео

Печатать
Просмотров: 227
Уроки эстрадного вокала в Санкт-Петербурге
Artist : Buckethead
Song   : Lotus Island
Album  : Inbred Mountain
Tuning : Eb Ab Db Gb Bb Eb

eb|-------------------------------------------------------------------|
bb|----14p9--9h14--14p10--10h14--14p12--12h14--14p10--10h14-----------|
gb|-------------------------------------------------------------------|
db|-11-----11----11-----11-----11-----11-----11-----11----------------|
ab|-------------------------------------------------------------------|
eb|-------------------------------------------------------------------|

   Seven string way
eb|-------------------------------------------|
bb|-------------------------------------------|
gb|-------------------------------------------|
db|-------------------------------------------|
ab|--2h4--2-----------------------------------|
eb|-----------5--4--2-----2--4--5-5/4-4-------|
bb|--------------------5--0--2--3-3/2-2-------|

   Six String Way
eb|-------------------------------------------|
bb|-------------------------------------------|
gb|-------------------------------------------|
db|--2h4--2-----------------------------------|
ab|-----------5--4--2-----2--4--5--5/4--4-----|
eb|--------------------5--0--2--3--3/2--2-----|

eb|--------------------------------------------------------------|
bb|--------------------------------------------------------------|
gb|--------------------------------------------------------------|
db|---11p6--6h11--11p7--7h11--11p9--9h11--11p7--7h11-------------|
ab|--------------------------------------------------------------|
eb|-9-----9-----9------9-----9-----9-----9-----9-----------------|

eb|-----------------------------------------------|
bb|------------------7----------------------------|
gb|---6--9--6--9--6----8*--8*-8---8---8h9---------|
db|-9---------------------------9---9-------------|
ab|-----------------------------------------------|
eb|-----------------------------------------------|

eb|-----------------------------------------------|
bb|------------------9-----------------12p10------|
gb|---6--9--6--9--6----8*--8*-8---8---------------|
db|-9---------------------------9----9------------|
ab|-----------------------------------------------|
eb|-----------------------------------------------|

   Solos
eb|----------------12--11---------------------------------------------------|
bb|-12h14~--14~-----------14--12-------------12h14~--12---------------------|
gb|------------------------------11--11h13----------------11--9/8--8/9------|
db|---------------------------------------------------------------------9---|
ab|-------------------------------------------------------------------------|
eb|-------------------------------------------------------------------------|

eb|----------------12--11---------------------------------------------------|
bb|-12h14~--14~-----------14--12-------------12h14~--12---------------------|
gb|------------------------------11--11h13---------------13--13h14p13h14p13-|
db|-------------------------------------------------------------------------|
ab|-------------------------------------------------------------------------|
eb|-------------------------------------------------------------------------|

eb|-14b16~---14b16--14b16--14-14-14-12~--12p11--11h12p11-------------------|
bb|------------------------------------------------------------------12----|
gb|------------------------------------------------------------------------|
db|------------------------------------------------------------------------|
ab|------------------------------------------------------------------------|
eb|------------------------------------------------------------------------|

eb|------------------------------------|
bb|-----------12~--10p9--9h10p9--------|
gb|--13~-------------------------10~---| 2x
db|--------11~-------------------------|
ab|------------------------------------|
eb|------------------------------------|

eb|------------------------11h12p11-------|
bb|-----------12~--10p9--------------12---|
gb|--13~----------------------------------|
db|--------11~----------------------------|
ab|---------------------------------------|
eb|---------------------------------------|

eb|--14~--14~--14--12--11h12p11------------------------|
bb|----------------------------------------------------|
gb|----------------------------------------------------|
db|----------------------------------------------------|
ab|----------------------------------------------------|
eb|----------------------------------------------------|

eb|----------|
bb|--9tr10---|
gb|----------|
db|----------|
ab|----------|
eb|----------|

eb|--11tr12---|
bb|-----------|
gb|-----------|
db|-----------|
ab|-----------|
eb|-----------|

eb|------------------------------------------|
bb|-------14--------12----------9h10p9-------|
gb|----13---13---11----11-----6---------9----|
db|-11----------9-----------7----------------|
ab|------------------------------------------|
eb|------------------------------------------|

eb|----------------------------------------------------------|
bb|-------------------12--10--9h10p9--9----------------------|
gb|-9h11-11h13-13~-----------------------8h9p8---------------|
db|--------------------------------------------------11--9---|
ab|----------------------------------------------------------|
eb|----------------------------------------------------------|

eb|----------------------------------------------------|
bb|-------------------12--10--9h10p9--9----------------|
gb|-9h11-11h13-13~-------------------------------------|
db|----------------------------------------------------|
ab|----------------------------------------------------|
eb|----------------------------------------------------|

eb|------12-11-12-11~-----------------------------------------------|
bb|--14-------------------------------------------------------------|
gb|-----------------------11h13--11h13--11/9--9h11-9-8h9p8----------|
db|-----------------------------------------------------------11----|
ab|-----------------------------------------------------------------|
eb|-----------------------------------------------------------------|

eb|------12-11-12-11~-------------------------------------------------------|
bb|--14-------------------------------------------10-10-9-9-10-9------------|
gb|-----------------------11h13--11h13--11/9--9--------------------9--8-----|
db|-----------------------------------------------------------------------9-|
ab|-------------------------------------------------------------------------|
eb|-------------------------------------------------------------------------|

eb|-----12-11-12-11-12------12-11-12-11-12----|
bb|-14------------------14--------------------|
gb|-------------------------------------------|
db|-------------------------------------------|
ab|-------------------------------------------|
eb|-------------------------------------------|

eb|----------------------------------------|
bb|-------12--12h14--12--------------------|
gb|-11h13---------------11--9----9h11------|
db|----------------------------11----------|
ab|----------------------------------------|
eb|----------------------------------------|

that's it 
Can someone else please tab some more stuff off of inbred mountain
it's such a good cd


Добавлено: 09.07.2012
Другие материалы по этой песне:

Страница создана 09.07.2012
http://primanota.ru/buckethead/lotus-island-chords.htm
Привет, Гость.
Предлагаем пройти революционный курс по гитаре.
Подарок от PrimaNota.Ru, забирай!