PrimaNota.ru - самый крупный в мире бесплатный архив песенных текстов, аккордов, табулатур и нот


Buckethead - Little Gracie - таба, видео

Регистрация Запомнить меня
Войти через:  Facebook Google Twitter Vk Yandex Mail.ru

Buckethead - Little Gracie - таба, видео

Печатать
Просмотров: 276
B U C K E T H E A D
"L I T T L E  G R A C I E"
O F F  O F
A C O U S T I C  S H A R D S ( 2007 )

Standard Tuning

( 00:00 - 00:46 )

e--2-------2----------------2-------4-----------------------------------|
B-------0-------4----------------0------4------------4------------------|
G---------------------------------------------3--4p3---4--3--------3----|
D----4-------------4---4------4-----------4-----------------4--4h6---4--|
A--2------------2----2------2-----------2---4---------------------------|
E------------------------------------------------4--------2-------------|

e--------2--------------------------|
B------4----------------4-----------|
G--4p3-----3------3-4------4--3-----|
D------------4--------4---------4---|
A--------------4------------------4-|
E--4-------2--------4---------2-----|

e---------------------------------|
B---------------------------------|
G---------3 / 4----------3 / 4----|
D------2--4-----------2--4--------|
A----2--------------2-------------|
E--0--------------0---------------|


e--2-------2----------------2-------4-----------|
B-------0-------4----------------0------4-----4-|
G-----------------------------------------------|
D----4-------------4---4------4-----------4-----|
A--2------------2----2------2-----------2---4---|
E-----------------------------------------------|

e--2-------2----------------2-----2--4----------|
B-------0-------4-----------------------4-------|
G---------------------------------------------3-|
D----4-------------4---4------4-----------4-----|
A--2------------2----2------2-----------2---4---|
E-----------------------------------------------|

e--------2--------------------------|
B------4----------------4-----------|
G--4p3-----3------3-4------4--3-----|
D------------4--------4---------4---|
A--------------4------------------4-|
E--4-------2--------4---------2-----|
          ^          ^
e---------|2-----2---|2---------|
B---------|4--4------|4---------|
G--3h4----|4------4--|4------4~-|
D------4--|2--2------|2---------|
A-------------------------------|
E----------------------------4~-|

Great song...I'll try to tab the rest...and yeah, I think it's in Half-Step Down tuning.
Добавлено: 28.03.2012
Другие материалы по этой песне:

Страница создана 09.03.2012
http://primanota.ru/buckethead/little-gracie-chords.htm
Привет, Гость.
Предлагаем пройти революционный курс по гитаре.
Подарок от PrimaNota.Ru, забирай!