PrimaNota.ru - самый крупный в мире бесплатный архив песенных текстов, аккордов, табулатур и нот


Buckethead - Hold Me Forever - таба, видео

Регистрация Запомнить меня
Войти через:  Facebook Google Twitter Vk Yandex Mail.ru

Buckethead - Hold Me Forever - таба, видео

Печатать
Просмотров: 348
Уроки эстрадного вокала в Санкт-Петербурге
-------------------------------------------------------------------------------
                             Hold Me Forever - Buckethead
-------------------------------------------------------------------------------
Tabbed by:Periah03
E-mail:wild_indian_from_outerspace@hotmail.com
now this took me quite a while to learn all by ear but ive gotten a lot of parts down but for now
the intro stuff and ill keep adding
Tuning: half step down

Intro riff
  4x
e|---------------------------------------------------------------------------|
B|--------5-7/9-------5-7/9-----4--------5-7/9------5-7/9-----12-------------|
G|------6-----------6------------------6----------6---------9----------------|
D|----6-----------6-----------6------6----------6---------7------------------|
A|--4-----------4-----------4------4----------4------------------------------|
E|---------------------------------------------------------------------------|
  2x
e|--------------------------------------------------16h17-16h17-16-----------|
B|--------17-------16h17p16----------------17--------------------------------|
G|--------------------------18-16h18-----------------------------------------|
D|-----18-------18----------------------18-------18--------------------------|
A|--16-------16----------------------16-------16-----------------------------|
E|---------------------------------------------------------------------------|
  4x
e|---------------------------------------------------------------------------|
B|--------5-7/9-------5-7/9-----4--------5-7/9------5-7/9-----12-------------|
G|------6-----------6------------------6----------6---------9----------------|
D|----6-----------6-----------6------6----------6---------7------------------|
A|--4-----------4-----------4------4----------4------------------------------|
E|---------------------------------------------------------------------------|
clean guitar and let ring 
e|---------------------------------------------------------------------------|
B|--------4p2-------------2p0-------------4p2-------------2p0----------------|
G|------4-----4---------2-----2---------4-----4---------2-----2--------------|
D|----4---------4-----2---------2-----4---------4-----2---------2------------|
A|--2---------------0---------------2---------------0------------------------|
E|---------------------------------------------------------------------------|
back to distortion
e|---------------------------------------------------------------------------|
B|-----------------------4---------------------------4-5---------------------|
G|------4-4-4--4------4----4------4-4-4--4-------4---------------------------|
D|---------------------------------------------------------------------------|
A|--4-7--7-7-77-7-4-7---7------4-7--7-7-77-7-4-7---7-------------------------|
E|---------------------------------------------------------------------------|

e|---------------------------------------------------------------------------|
B|-----------------------4---------------------------------------------------|
G|------4-4-4--4------4----4------4-4-4---999-8-9----------------------------|
D|----------------------------------------999-8-9----------------------------|
A|--4-7--7-7-77-7-4-7---7------4-7--7-7-7-777-6-7----------------------------|
E|---------------------------------------------------------------------------|

e|---------------------------------------------------------------------------|
B|---------------------------------------------------------------------------|
G|--6666-6--9999-9--4444-4---2--44--6666-6-9999-9-4444-4---2--44-------------|
D|--6666-6--9999-9--4444-4--2--4-4--6666-6-9999-9-4444-4--2--4-4-------------|
A|--4444-4--7777-7--2222-2-0--2--2--4444-4-7777-7-2222-2-0--2--2-------------|
E|---------------------------------------------------------------------------|
  2x
e|---------------------------------------------------------------------------|
B|--------5-7/9-------5-7/9-----4--------5-7/9------5-7/9-----12-------------|
G|------6-----------6------------------6----------6---------9----------------|
D|----6-----------6-----------6------6----------6---------7------------------|
A|--4-----------4-----------4------4----------4------------------------------|
E|---------------------------------------------------------------------------|
this parts hard to figure the timing out
e|---------------------------------------------------------777775555544444---|
B|------4444455555--------4444455555----------44445555-----------------------|
G|-66666----------66664444----------4444422222--------22222------------------|
D|---------------------------------------------------------------------------|
A|---------------------------------------------------------------------------|
E|---------------------------------------------------------------------------|
  5x
e|---------------------------------------------------------------------------|
B|---------------------------------------------------------------------------|
G|---2--444-6666-6----2--444-6666-6------------------------------------------|
D|--2--4-44-6666-6---2--4-44-6666-6------------------------------------------|
A|-0--2--22-4444-4--0--2--22-4444-4------------------------------------------|
E|---------------------------------------------------------------------------|
clean guitar this time 2x
e|---------------------------------------------------------------------------|
B|--------5-7/9-------5-7/9-----4--------5-7/9------5-7/9-----12-------------|
G|------6-----------6------------------6----------6---------9----------------|
D|----6-----------6-----------6------6----------6---------7------------------|
A|--4-----------4-----------4------4----------4------------------------------|
E|---------------------------------------------------------------------------|
this part is hard to do cause he has a killswitch involved but ill get the rest done tomorrow

e|---------------------------------------------------------------------------|
B|---------------------------------------------------------------------------|
G|---------------------------------------------------------------------------|
D|---------------------------------------------------------------------------|
A|---------------------------------------------------------------------------|
E|---------------------------------------------------------------------------|


************************************

| /   slide up
| \   slide down
| h   hammer-on
| p   pull-off
| ~   vibrato
| +   harmonic
| x   Mute note
| b   Bend
| pb  Pre-bend
| br  Bend release
| pbr Pre-bend release
| brb Bend release bend

************************************
Добавлено: 04.10.2014
Другие материалы по этой песне:
  • Аккорды и текст

Страница создана 04.10.2014
http://primanota.ru/buckethead/hold-me-forever-chords.htm
Привет, Гость.
Предлагаем пройти революционный курс по гитаре.
Подарок от PrimaNota.Ru, забирай!