PrimaNota.ru - самый крупный в мире бесплатный архив песенных текстов, аккордов, табулатур и нот


Buckethead - Subterranean - таба, видео

Регистрация Запомнить меня
Войти через:  Facebook Google Twitter Vk Yandex Mail.ru

Buckethead - Subterranean - таба, видео

Печатать
Просмотров: 94
-------------------------------------------------------------------------------
                         Subterranean by Buckethead
-------------------------------------------------------------------------------
Tabbed by: Nighttime

Tuning: DADGBe


Riff 1:

e|---------------------------------------------------------------------------|
B|---------------------------------------------------------------------------|
G|---------------------------------------------------------------------------|
D|--------------3------------------------------------------------------------|
A|----------3h5---5p3--------------------------------------------------------|
D|----5-8p5-----------8p5s3s5------------------------------------------------|

Riff 2:

e|---------------------------------------------------------------------------|
B|---------------------------------------------------------------------------|
G|---------------------------------------------------------------------------|
D|----0---7---8---0---8---0---10---8---7---3---------------------------------|
A|----0---7---8---0---8---0---10---8---7---3---------------------------------|
D|----0---7---8---0---8---0---10---8---7---3---------------------------------|

Riff 3:
                   *Palm Mute*      *Last time through hit a few more times*
e|---------------------------------------------------------------------------|
B|---------------------------------------------------------------------------|
G|---------------------------------------------------------------------------|
D|----5---3---1----1-1-1-1-1-1-----1-1-1-1-1-1-------------------------------|
A|----5---3---1----1-1-1-1-1-1-----1-1-1-1-1-1-------------------------------|
D|----5---3---1----1-1-1-1-1-1-----1-1-1-1-1-1-------------------------------|

Riff 4:
            *Palm Mute*
e|---------------------------------------------------------------------------|
B|---------------------------------------------------------------------------|
G|---------------------------------------------------------------------------|
D|----3h5--5-5-5-5-5-5-5-5---- x3 -------0---1---3---------------------------|
A|----3h5--5-5-5-5-5-5-5-5---------------0---1---3---------------------------|
D|----3h5--5-5-5-5-5-5-5-5---------------0---1---3---------------------------|

Riff 5:

e|---------------------------------------------------------------------------|
B|---------------------------------------------------------------------------|
G|----7--8--7-----------7--8--7--5--3--2--3-----------3--2--3--5-------------|
D|----7--8--7-----------7--8--7--5--3--2--3-----------3--2--3--5----REPEAT---|
A|----5--6--5-----------5--6--5--3--1--0--1-----------1--0--1--3-------------|
D|-------------0--0--0-----------------------0--0--0-------------------------|
             *Palm Mute*                   *Palm Mute*



Song Order:

Riff 1 x8
Riff 2 x1
Riff 1 x4
Riff 2 x1
Riff 1 x3
Riff 2 x1
Riff 1 x3
Riff 2 x1
Riff 3 x4
Riff 4 x2
Riff 5 x4
Riff 1 x8
Riff 2 x1
Riff 1 x4
Riff 2 x1
Riff 1 x3
Riff 2 x1
Riff 1 x3
Riff 2 x1
Riff 3 x4
Riff 4 x2
Riff 5 x4
Riff 1 x4

************************************

| s   slide
| h   hammer-on
| p   pull-off

************************************
Добавлено: 15.05.2015
Другие материалы по этой песне:

Страница создана 09.10.2014
http://primanota.ru/buckethead/subterranean-chords.htm
Привет, Гость.
Предлагаем пройти революционный курс по гитаре.
Подарок от PrimaNota.Ru, забирай!