PrimaNota.ru - самый крупный в мире бесплатный архив песенных текстов, аккордов, табулатур и нот


Buckethead - Running From The Light - текст песни, таба, видео

Регистрация Запомнить меня
Войти через:  Facebook Google Twitter Vk Yandex Mail.ru

Buckethead - Running From The Light - текст песни, таба, видео

Печатать
Просмотров: 74
-------------------------------------------------------------------------------
                             Running From The Light - Buckethead
-------------------------------------------------------------------------------
Tabbed by: guitarhodgie
E-mail:

Tuning: standard

This was done by ear so it may be a bit off

intro
e|---------------------------------------------------------------------------|
B|--14---12---15--10-------14---12---7---------------------------------------|
G|--14---13---14--9--------14---13---7---6-----------------------------------|
D|--16---15---16--11-------16---15---7---7-----------------------------------|
A|---------------------------------------7-----------------------------------|
E|---------------------------------------------------------------------------|

e|----21----------------------------------------21----------------------------------------|
B|-19----22-21b22b21-17--17b19b17------------19----22-21b22b21-17--17b19b17---------------|
G|--------------------------------18-16-18----------------------------------16b18b16-14---|
D|----------------------------------------------------------------------------------------|
A|----------------------------------------------------------------------------------------|
E|----------------------------------------------------------------------------------------|

verse1
e|---0--------------0-------------------------------------------------------------0-------|
B|-2---5-5---5----2-----5---5-----2-3-2---2-3-2---2-3-2--2-3-2---2-3-2---2-3-2--2---2--5--|
G|-2---6--6---6---2---6--6---6----2----2--2----2--2------2----2--2----2--2------2------6--|
D|-4---6---6---6--4---6---6---6---4-----4-4-----4-4------4-----4-4-----4-4------4------6--|
A|----------------------------------------------------------------------------------------|
E|----------------------------------------------------------------------------------------|

chorus
e|---------------------------------------------------------------------------|
B|---------------------------------------------------------------------------|
G|-------------------------------------------------2h4-2-1-1-----------------|
D|---2h4-4p2-----2-------2h4-4-----2h4-4p2-----2h4---------------------------|
A|-----------2h4---4-2h4-------------------2h4-------------------------------|
E|-2-----------------------------2-------------------------------------------|

verse2
  |------played 5 times--------|
e|---------------------------------------------------------------------------|
B|------10-----9---9---9---9--------x\---------------------------------------|
G|---------11---9---9---9---9-------x\---------------------------------------|
D|---11----------11--11--11--11----------------------------------------------|
A|-9-------------------------------------------------------------------------|
E|---------------------------------------------------------------------------|

solo
e|----------------------------------------------------12----12---------------|
B|-9h10p9---12----12------------12---------------------9h10--9--12-12----12--|
G|-----------9h11-9----------9---9h11-9---------9--7-------------9--9h11--9--|
D|-------------------11-9h11------------11-9\7--7--6-------------------------|
A|---------------------------------------------------------------------------|
E|---------------------------------------------------------------------------|

e|---------------12p10-----10h12p10------12----12----------------------------|
B|--------------------10-----------10-----9h10--9----9----9------------------|
G|----------------------11------------------------11-9h11-9---------9--------|
D|11p9-11/12-12---------------------------------------------11-9h11----------|
A|---------------------------------------------------------------------------|
E|---------------------------------------------------------------------------|

e|------------------------------14----------24\------------------------------|
B|----------------------14----14--14-17b19-------15-14-14--------------------|
G|-9---9---9--------9---16b18----------------------------16-14-16-16/18------|
D|-7\6-6/7-7h9-9/11----------------------------------------------------16----|
A|---------------------------------------------------------------------------|
E|---------------------------------------------------------------------------|

e|-----17h16-----------------------------------------------------------------|
B|---19----------------------------------------------------------------------|
G|-18--------18h19-18h19-16h18-16h18-14h16-14h16-13h14-13h14-----------------|
D|-----------16----16----14----14----12----12----11----11--------------------|
A|---------------------------------------------------------------------------|
E|---------------------------------------------------------------------------|


************************************

| /   slide up
| \   slide down
| h   hammer-on
| p   pull-off
| ~   vibrato
| +   harmonic
| x   Mute note
| b   Bend
| pb  Pre-bend
| br  Bend release
| pbr Pre-bend release
| brb Bend release bend 
| x\  Pick slide

************************************
Добавлено: 20.02.2016
Другие материалы по этой песне:
  • Аккорды и текст

Страница создана 15.10.2014
http://primanota.ru/buckethead/running-from-light-chords.htm
Привет, Гость.
Предлагаем пройти революционный курс по гитаре.
Подарок от PrimaNota.Ru, забирай!