PrimaNota.ru - самый крупный в мире бесплатный архив песенных текстов, аккордов, табулатур и нот


Buckethead - Help Help Help - таба, видео

Регистрация Запомнить меня
Войти через:  Facebook Google Twitter Vk Yandex Mail.ru

Buckethead - Help Help Help - таба, видео

Печатать
Просмотров: 217
Tabbed by MetalMonsterGuitar
www.youtube.com/MetalMonsterGuitar

Intro:

e|---------------------------------------------------------------------------|
B|---------------------------------------------------------------------------|
G|---------------------------------------------------------------------------|
D|---------------------------------------------------------------------------|
A|-4-4-4--4-4-4-4-4-4--------------------------------------------------------|
E|-2-2-2--2-2-2-2-2-2--------------------------------------------------------|

Repeat x4

e|---------------------------------------------------------------------------|
B|---------------------------------------------------------------------------|
G|---------------------------------------------------------------------------|
D|---------------------------------------------------------------------------|
A|---------------------------------------------------------------------------|
E|-2-3(Trill)-3-4(Trill)-15b-2-3(Trill)-3-4(Trill)-17b-----------------------|


e|---------------------------------------------------------------------------|
B|---------------------------------------------------------------------------|
G|---------------------------------------------------------------------------|
D|---------------------------------------------------------------------------|
A|---------------------------------------------------------------------------|
E|-2-3(Trill)-3-4(Trill)-19b-2-3(Trill)-3-4(Trill)-22b-----------------------|

Main Riff: (Alternating Palm Muting/Open Strumming [Listen to song])

e|------------------------------------------------------------------------------|
B|------------------------------------------------------------------------------|
G|-------3----------------------------------------------------------------------|
D|-------4(Slide up neck while strumming occasionally)--------------------------|
A|-4--5--5----------------------------------------------------------------------|
E|-2--3-------------------------------------------------------------------------|

Repeat

Lead (Chorus):

e|--------10-9~-10~----------------------------------------------------------|
B|---------------------------------------------------------------------------|
G|-9-11h~-----------9-9-11~--11-11-/14-12-12~-11-11-11-----------------------|
D|---------------------------------------------------------------------------|
A|---------------------------------------------------------------------------|
E|---------------------------------------------------------------------------|

e|-----------10-9~-10~-12-12-/14~-12-10-9-10---------------------------------|
B|------------------------------------------10~------------------------------|
G|-9-9-9-11h~----------------------------------------------------------------|
D|---------------------------------------------------------------------------|
A|---------------------------------------------------------------------------|
E|---------------------------------------------------------------------------|

Repeat

Second Lead:
e|-------------10~-9-10-9----------------------------------------------------|
B|-----------------------10~-------------------------------------------------|
G|-11~-11-12-14-------------11~-11-12-14-------------------------------------|
D|--------------------------------------12-----------------------------------|
A|---------------------------------------------------------------------------|
E|---------------------------------------------------------------------------|

e|---------------------------------------------------------------------------|
B|---------------------------------------------------------------------------|
G|---------------------------------------------------------------------------|
D|-------12--12-14h-14b-14-12-11-12h-11p-------------------------------------|
A|-12-14h--14-------------------------12-12-12-14-12-10-9-9-9-9-10-9---------|
E|------------------------------------------------------------------10-10-12-|

Repeat main lead and second lead

Then Repeat all

Repeat chorus
Добавлено: 22.07.2012
Другие материалы по этой песне:

Страница создана 11.05.2012
http://primanota.ru/buckethead/help-help-help-chords.htm
Привет, Гость.
Предлагаем пройти революционный курс по гитаре.
Подарок от PrimaNota.Ru, забирай!