PrimaNota.ru - самый крупный в мире бесплатный архив песенных текстов, аккордов, табулатур и нот


Buckethead - I Can Only Carry 50 Chickens At A Time - таба, видео

Регистрация Запомнить меня
Войти через:  Facebook Google Twitter Vk Yandex Mail.ru

Buckethead - I Can Only Carry 50 Chickens At A Time - таба, видео

Печатать
Просмотров: 201
Buckethead
Song: I can only carry 50 chickens at a time
Album: Decoding the Tomb of Bansheebot
Tabbed by: mikef1269

Both Guitars tune: DADGBE

Intro
E--6-----6-----5---------6-----6------5---------------|
B--5-----5-----6---------5-----5------6---------------|
G--7-----7-----7---------7-----7------7---------------|
D--8-----8-----7---------8-----8------7---------------|
A-----------------------------------------------------|
D--0-----0-----0---------0-----0------0---------------|

Play x10
E-------------------------------------------------|
B-------------------------------------------------|
G--------------------------------/5--5------------|
D--5-------------3--------------------------------|
A----5-----5--------5-----5------/3--3------------|
D-------0-----0-------0-------0-------------------|

Play x4
E---------------------------------------------|
B--5-5-5-6--------5-5-5-6---------------------|
G--5-5-5-5--7-----5-5-5-5---3-----------------|
D--5-5-5-5--7-----5-5-5-5---3-----------------|
A--3--------5-----3---------1-----------------|
D---------------------------------------------|


E----------------------------------------------------------------------------|
B----------------------------------------------------------------------------|
G----------------------------------7-----------------------------------------|
D--------------3-2----7------8-7-0---7-0---------7---------------------------|
A-1-0----5-0-------0----7-0---------------8-7-0-----7-0--------5-------------|
D------0-----0-------------------------------------------8-7-0----7-0-8-7----|

Gtr 1. x10
E-----------------------------------|
B-----------------------------------|
G-----------------------------------|
D-----------------------------------|
A-5--3----------------3-3------5----|
D-------0--7--0--3--5-------5-------|

Gtr 2. Enter on the the 4th time. Play x6
E----10-----10-------10--10-----10-------------------------------|
B-10-----10-----10----------10------10---------------------------|
G--------------------10------------------------------------------|
D-----------------------------------10---------------------------|
A----------------------------------------------------------------|
D----------------------------------------------------------------|

1:44 Play x4
E------------------------------------------------------|
B------------------------------------------------------|
G------------------------------------------------------|
D-10--12-----------------------10--12------------------|
A---------10--12------------12---------10--12----------|
D----------------10--12--12----------------------------|

E------------------------------------------------------|
B------------------------------------------------------|
G------------------------------------------------------|
D-8--12------------------------8--12-------------------|
A--------8--12-------------12----------8--12-----------|
D---------------8--12--12------------------------------|

E-----------------------------------------------------|
B-----------------------------------------------------|
G-----------------------------------------------------|
D-7--12------------------------7--12------------------|
A--------7--12-------------12---------7--12-----------|
D---------------7--12--12-----------------------------|

E--------------------------------------------------------|
B--------------------------------------------------------|
G--------------------------------------------------------|
D-10--12---------------------------10--12----------------|
A---------10--12--------------12-----------10--12--------|
D-----------------10--12--12-----------------------------|

Both Gtrs: A5

Play X7
E-------------------------------------------------|
B-------------------------------------------------|
G-------------------------------------------------|
D-----7--8------8--7--------6------6--6-----------|
A----------------------------------------5--------|
D--0---------0---------0--------0-----------------|


Play x10
E-----------------------------------------------------|
B-----------------------------------------------------|
G-----------------------------------7-----------------|
D-0--7--8--0--8--7--0--6---0--6--6--7-----------------|
A-0--7--8--0--8--7--0--6---0--6--6--5-----------------|
D-0--7--8--0--8--7--0--6---0--6--6--------------------|

Ascend this pattern chromatically with heavy vibrato
E----9-----10------11-----12------13-------------------|
B-8-----9------10------11-----12-----------------------|
G------------------------------------------------------|
D------------------------------------------------------|
A------------------------------------------------------|
D------------------------------------------------------|

That's all!
Добавлено: 15.07.2012
Другие материалы по этой песне:

Страница создана 13.04.2012
http://primanota.ru/buckethead/i-can-only-carry-50-chickens-at-a-time-chords.htm
Привет, Гость.
Предлагаем пройти революционный курс по гитаре.
Подарок от PrimaNota.Ru, забирай!