PrimaNota.ru - самый крупный в мире бесплатный архив песенных текстов, аккордов, табулатур и нот


Buckethead - Humans Vanish - таба, видео

Регистрация Запомнить меня
Войти через:  Facebook Google Twitter Vk Yandex Mail.ru

Buckethead - Humans Vanish - таба, видео

Печатать
Просмотров: 178
p: pull off 
~: Hold note 

e|-----------------------------------------------17----17-------| 
B|--19------19---------------------19-----19--------19----19----|X4 
G|--19--19-----19--18--19--20-p18--19--19----19-----------------| 
D|-----------------19-------------------------------------------| 
A|--------------------------------------------------------------| 
E|--------------------------------------------------------------| 

e|-----------------------------------------------17----17-------| 
B|--19------19---------------------19-----19--------19----19~~--| 
G|--19--19-----19--18--19--20-p18--19--19----19-----------------| 
D|-----------------19-------------------------------------------| 
A|--------------------------------------------------------------| 
E|--------------------------------------------------------------| 

This is my second tab. :)
Добавлено: 11.06.2012
Другие материалы по этой песне:

Страница создана 15.05.2012
http://primanota.ru/buckethead/humans-vanish-chords.htm
Привет, Гость.
Предлагаем пройти революционный курс по гитаре.
Подарок от PrimaNota.Ru, забирай!