PrimaNota.ru - самый крупный в мире бесплатный архив песенных текстов, аккордов, табулатур и нот


Buckethead - Goblin Shark - таба, видео

Регистрация Запомнить меня
Войти через:  Facebook Google Twitter Vk Yandex Mail.ru

Buckethead - Goblin Shark - таба, видео

Печатать
Просмотров: 148
Artist : Buckethead
Song   : Goblin Shark
Album  : Pepper's Ghost
Tuning : Eb Ab Db Gb Bb Eb

This is one of my favorite songs off this album

Eb||--5----|--1----1----1----3----|--1----0----|--3----3----5----5----------|
Bb||--3----|--3----3----3----3----|--3----1----|--5----5----6----6----------|
Gb||-------|----------------------|------------|----------------------------|
Db||-------|----------------------|------------|----------------------------|
Ab||-------|----------------------|------------|----------------------------|
Eb||-------|----------------------|------------|----------------------------|

--3----0----0----1----|--1----|--5--|
--5----1----1----3----|--3----|--3--|
----------------------|-------|-----|
----------------------|-------|-----|
----------------------|-------|-----|
----------------------|-------|-----|

--1----1----1----3----|--1----0----|--3----3----5----5-----|
--3----3----3----3----|--3----1----|--5----5----6----6-----|
----------------------|------------|-----------------------|
----------------------|------------|-----------------------|
----------------------|------------|-----------------------|
----------------------|------------|-----------------------|

--1----1--------------|-------------|
--3----3----1----1----|-3----3------|
----------------------|-------------|
----------------------|-------------|
----------------------|-------------|
----------------------|-------------|

--------------------------------------------------------------|
--------------------------------------------------------------|
--7----7------------------------------------------------------|
--7----7-------------------------------------1----------------|
--5----5---------------------1----2----3----------3----1------|
------------1----2------3-------------------------------------|

------------------|--------------------|------------------------|
------------------|--------------------|------------------------|
------------------|--x----x----7----7--|------------------------|
------------------|--x----x----7----7--|------------------------|
------------------|--x----x----5----5--|-----------------1------|
--3----2----1---|----------------------|--1----2----3-----------|

----------------------|---------------------|--------|
----------------------|---------------------|--------|
----------------------|---------------------|-------*|
------------1---------|---------------------|-------*|
--2----3---------3----|--2----1-------------|--------|
----------------------|------------3----2---|--1-----|

|--------------------|
|--------------------|
|--5h7--------5------|
|--5----------5----7-|
|--5----------5----5-|
|--------------------|

------------------------|---------------||--------------------------|
------------------------|---------------||--------------------------|
------------------------|--------------*||--------------------------|
--3h5--------5h7--------|--5p3---------*||--3----2----5----3h5------|
--3----------3----------|--3------------||--1----1----3----3--------|
------------------------|---------------||--------------------------|

--------------------------------|-------|-------8-----------|
--------------------------------|-------|--6---------6----5-|
--------------------------------|--5----|-------------------|
-------5h7--------5p3-----------|--5----|-------------------|
-------3----------3-------------|--3----|-------------------|
--------------------------------|-------|-------------------|

--8--------------8---|------------8--------|--8---------8----------|
-------6----5--------|--6----5---------5---|-------5---------------|
---------------------|---------------------|----------------------*|
---------------------|---------------------|----------------------*|
---------------------|---------------------|-----------------------|
---------------------|---------------------|-----------------------|

|------------|------|-----------|
|------------|------|-----------|
|--7---------|--10--|----12-----|
|--7---------|--10--|----12-----|
|--5---------|---8--|----10-----|
|------------|------|-----------|

|-----------------------|--------------12----------|
|-----------------------|--13----------------13----|
|--9----9----9----10----|--------10----------------|
|--0----0----0-----0----|--------------------------|
|-----------------------|--------------------------|
|-----------------------|--------------------------|

|--------|-------------------------------|--15----13----12-----------|
|--10----|--13----10----11----13---------|--------------------15-----|
|--------|-------(10)---(12)-------------|---------------------------|
|--------|-------------------------------|---------------------------|
|--------|-------------------------------|---------------------------|
|--------|-------------------------------|---------------------------|

--------------------------|
--------------------------|
--14----12----------------|
--------------15----12----|
--------------------------|
--------------------------|

|------------------------|----------------------|------|
|------------------------|----------------------|------|
|--7--------------3------|--7--------------5----|--3---|
|--7----3----5----3------|--7----3----5----5----|--3---|
|--5----3----5----1------|--5----3----5----3----|--1---|
|-------1----3-----------|-------1----3---------|------|

--------------------|--------------------------|--------------------------|
--------------------|--------------------------|--------------------------|
--------------------|--------------------------|--------------------------|
--------12p7--------|--------7h12--------------|--12p7--------------7h12--|
--------------------|--------------------------|--------------------------|
--10----------------|--10----------------10----|--------------10----------|

----------------------------|--------------------------|
----------------------------|--------------------------|
----------------------------|--------------------------|
--------------12p8----------|--------8h12--------------|
----------------------------|--------------------------|
--------10------------------|--10----------------10----|

--------------------------|---------------------------|
--------------------------|---------------------------|
--------------------------|---------------------------|
--12p8--------------8h12--|-----------12p10-----------|
--------------------------|---------------------------|
--------------10----------|--------10-----------------|

---------------------------|-------------------------------|
---------------------------|-------------------------------|
---------------------------|-------------------------------|
--------10h12--------------|--12p10--------------10h12-----|
---------------------------|-------------------------------|
--10------------------10---|---------------10--------------|

--------------------------|---------------------------|
--------------------------|---------------------------|
--------------------------|---------------------------|
--------------12p8--------|--------8h12---------------|
--------------------------|---------------------------|
--------10----------------|--10----------------10-----|

--------------------------|---------|
--------------------------|---------|
--------------------------|-----7---|
--12p8--------------8h12--|-----7---|
--------------------------|-----5---|
--------------10----------|---------|

Thats it just hold the chords and notes as long as he does and repeat stuff however many 
he does.

please rate
Добавлено: 21.05.2012
Другие материалы по этой песне:

Страница создана 03.05.2012
http://primanota.ru/buckethead/goblin-shark-chords.htm
Привет, Гость.
Предлагаем пройти революционный курс по гитаре.
Подарок от PrimaNota.Ru, забирай!