PrimaNota.ru - самый крупный в мире бесплатный архив песенных текстов, аккордов, табулатур и нот


Buckethead - Halloween - таба, видео

Регистрация Запомнить меня
Войти через:  Facebook Google Twitter Vk Yandex Mail.ru

Buckethead - Halloween - таба, видео

Печатать
Просмотров: 238
                                  Hallowen                                     
Tap with fret hand on B and high E string.
Tap bottom E string with picking hand, and let the notes ring, except in last section.

                                                                  Godly Moose
Track 1



                                                                       
E||--9--------9--------9-----10-----|--9--------9--------9-----10-----|
B||-----7--7-----7--7-----7------7--|-----7--7-----7--7-----7------7--|
G||---------------------------------|---------------------------------|
D||---------------------------------|---------------------------------|
A||---------------------------------|---------------------------------|
E||--2--------5--------6------------|--2--------5--------6------------|


                                                                  
--8--------8--------8-----9-----|--8--------8--------8-----9-----|
-----6--6-----6--6-----6-----6--|-----6--6-----6--6-----6-----6--|
--------------------------------|--------------------------------|
--------------------------------|--------------------------------|
--------------------------------|--------------------------------|
--2--------5--------6-----------|--2--------5--------6-----------|


                                                                  
--7--------7--------7-----8-----|--7--------7--------7-----8-----|
-----5--5-----5--5-----5-----5--|-----5--5-----5--5-----5-----5--|
--------------------------------|--------------------------------|
--------------------------------|--------------------------------|
--------------------------------|--------------------------------|
--0--------3--------4-----------|--0--------3--------4-----------|


                                                                  
--6--------6--------6-----7-----|--6--------6--------6-----7-----|
-----4--4-----4--4-----4-----4--|-----4--4-----4--4-----4-----4--|
--------------------------------|--------------------------------|
--------------------------------|--------------------------------|
--------------------------------|--------------------------------|
--0--------3--------4-----------|--0--------3--------4-----------|


                                            10x
|---14----------14----------14------15-------||
|-------12--12------12--12------12------12---||
|*------------------------------------------*||
|*------------------------------------------*||
|--------------------------------------------||
|---7---10--12--14------7---10--12--14-------||


Добавлено: 23.02.2012
Другие материалы по этой песне:

Страница создана 23.02.2012
http://primanota.ru/buckethead/halloween-chords.htm
Привет, Гость.
Предлагаем пройти революционный курс по гитаре.
Подарок от PrimaNota.Ru, забирай!