PrimaNota.ru - самый крупный в мире бесплатный архив песенных текстов, аккордов, табулатур и нот


Buckethead - Exit 209 - таба, видео

Регистрация Запомнить меня
Войти через:  Facebook Google Twitter Vk Yandex Mail.ru

Buckethead - Exit 209 - таба, видео

Печатать
Просмотров: 159
-------------------------------------------------------------------------------
			     EXIT 209 - Buckethead
-------------------------------------------------------------------------------
Tabbed by: aaron mcmahon
Email: otakugeek@hotmail.com

Tuning: 1/2 step down

RIFF 1
e|---7\--------------------------7\-----------------------------|
B|---7\--------------------------7\-----------------------------|
G|O--------4--6/7--9--7\6--------------4--6/7--9--7\4-----------|
D|O--------2--4/5--7--5\4--7-----------2--4/5--7--5\6--7--------|
A|-------------------------5---------------------------5--------|
E|--------------------------------------------------------------|

e|---7\---------------------------------------|
B|---7\---------------------------------------|
G|--------4--6/7--9--7\6--4--4--4/6----------O|	x2
D|--------2--4/5--7--5\4--2--2--2/4--7-------O|
A|-----------------------------------5--------|
E|--------------------------------------------|

RIFF 2
e|-----------------------------------------------------------|
B|-----------------------------------------------------------|
G|O----------------------------------------------------------|
D|O---9\------------------------9\---------------------------|
A|----7\--9/10--12--10\9--5-----7\--9/10--12--10\9--5--------|
E|--------7/8---10---8\7--3---------7/8---10---8\7--3--------|

e|-----------------------------------------|
B|-----------------------------------------|
G|----------------------------------------O| x2
D|-9\-------------------------------------O|
A|-7\--9/10--12--10\9--7--7--7/9--5--------|
E|-----7/8---10---8\7--5--5--5/7--3--------|

1st KILLSWITCH PART
e|-------------10-10-7-7-7-14-14-15-15-----------|
B|-------------------------------------15-15-----|
G|O--9-9-----------------------------------------|
D|O------7-7-7-----------------------------------|
A|-----------------------------------------------|
E|-----------------------------------------------|

e|-------------10-10-7-7-7-14-14-15-15-----------|
B|-------------------------------------15-15-----|
G|---9-9-----------------------------------------|
D|-------7-7-7-----------------------------------|
A|-----------------------------------------------|
E|-----------------------------------------------|

e|-------------10-10-7-7-7-14-14-15-15---------------------------------------------|
B|-------------------------------------15-15---------------------------------------|
G|---9-9-------------------------------------12-12-12----------------9-9-9----9-9-O| x2
D|-------7-7-7----------------------------------------12-12-12-9-9-9------9-9-----O|
A|---------------------------------------------------------------------------------|
E|---------------------------------------------------------------------------------|

REPEAT RIFFS 1&2

SECOND KILLSWITCH PART          (LISTEN FOR RHYTHM)
e|---------------------------------------------------------------------------|
B|---------------------------------------------------------------------------|
G|-----------------------12---11---------------------------------------------|
D|---5----5-4-5---7----------------------------------------------------------|
A|----------------------------------14---------------------------------------|
E|---------------------------------------------------------------------------|
 |                                                                           |
 |                                                                           |
 |  RIFF IN BACKGROUND                                                          |
e|---------------------------------------------------------------------------|
B|---------------------------------------------------------------------------|
G|---------------------------------------------------------------------------|
D|----------------------5---------------5---4--------------------------------|
A|---2-2--------2-2-----3-----2-2-------3---2--------------------------------|
E|---0-0--------0-0-----------0-0--------------------------------------------|

RIFF 3
e|-------------/5-----------------------/5---------------|
B|---5/6--5/6--/5--8--6\5-----5/6--5/6--/5--8--6\5-------|
G|O--4/5--4/5------7--5\4-----4/5--4/5------7--5\4-------|
D|O------------------------------------------------------|
A|-------------------------------------------------------|
E|-------------------------------------------------------|

                               _1_______________
			      |
e|-------------/5-------------|--5--8--10--7--7----------|
B|---5/6--5/6--/5--8--6\5-----|--5--8--10--7--7----------|
G|---4/5--4/5------7--5\4-----|-------------------------O|
D|----------------------------|-------------------------O|
A|----------------------------|--------------------------|
E|----------------------------|--------------------------|

  __2________________
  |
e|--5--8--7--3--------|
B|--5--8--7--3--------|
G|--------------------|
D|--------------------|
A|--------------------|
E|--------------------|

RIFF 4
e|-----------------|
B|-----------------|
G|O---------------O| x8
D|O---------------O|
A|-----------------|
E|---0-0-3~-0-0----|



e|-------19-----------19-----------19-----------19--19/22--20-19-20----------|
B|----------19-20-17-----19-20-17-----19-20-17----------------------20--19---|
G|---------------------------------------------------------------------------|
D|---------------------------------------------------------------------------|
A|--13-----------------------------------------------------------------------|
E|---------------------------------------------------------------------------|

e|----------------------------------19---------------------------------------|
B|--17-19-20-17-20-22-19---17----------22-20-19-20-22---22---22-20-19-20-22--|
G|-----------------------------19--------------------------------------------|
D|---------------------------------------------------------------------------|
A|---------------------------------------------------------------------------|
E|---------------------------------------------------------------------------|

e|-------------------------------|
B|--20-20-19-17----15--15h17-----|
G|-------------------------------|
D|-------------------------------|
A|-------------------------------|
E|-------------------------------|

RIFF 5
e|----------------------------|
B|----------------------------|
G|O--------------------------O|
D|O---8----------------------O|
A|----8-888888888--10-9-8-----|
E|------------------8-7-6-----|

OUTRO
e|--------------------------------------------------|
B|--------------------------------------------------|
G|O-------------------------------------------------|
D|O-------------------------------------------------|
A|------4-----------------------4-------------------|
E|---2------4-5-4---3-4------2------4-5-4---3-4-----|

e|--------------------------------------------|
B|--------------------------------------------|
G|-------------------------------------------O| x2
D|-------------------------------------------O|
A|------4----------------------4--------------|
E|---2------4-5-4---3-4-----2------1---0------|

| /  slide up
| \  slide down
| h  hammer-on
| p  pull-off
| ~  vibrato
| +  harmonic
| x  Mute note
===============================================================================
Добавлено: 26.07.2012
Другие материалы по этой песне:

Страница создана 30.03.2012
http://primanota.ru/buckethead/exit-209-chords.htm
Привет, Гость.
Предлагаем пройти революционный курс по гитаре.
Подарок от PrimaNota.Ru, забирай!