PrimaNota.ru - самый крупный в мире бесплатный архив песенных текстов, аккордов, табулатур и нот


Buckethead - Finger Nubbing - таба, видео

Регистрация Запомнить меня
Войти через:  Facebook Google Twitter Vk Yandex Mail.ru

Buckethead - Finger Nubbing - таба, видео

Печатать
Просмотров: 166
Tabbed By: Ian Spaid
Email: johntesh1on1@yahoo.com

This is for those of you that don\'t have Guitar Pro to see my other tab.

This is how Buckethead starts the 3 finger tapping section of the Guitar One lesson. 
going to try to tab the rest of the lesson out soon. Check back for updates!

Update: I added the last two notes that I forgot.

R=Tap with ring finger
M=Middle
I=Index

        R       M      I     R       M      I     ETC...
D#||-----------------------------------------------------------------------------|
A#||-----------------------------------------------------------------------------|
F#||*-----------------------------------------------------------------17p-10h-16-|
C#||*--------------------------------------------17p-10h-16p-9h-15p-8------------|
G#||------------------------17p-10h-16p-9h-15p-8---------------------------------|
D#||---17p-10h-16p-9h-15p-8------------------------------------------------------|


   R       M      I     R       M      I     ETC...
      ---------------------------------------------------------------------------------|
--17p-10h-16p-9h-15p-8-----------------------------------------------------------------|
-----------------------17p-10h-16p-9h-15p-8--------------------------------------------|
--------------------------------------------17p-10h-16p-9h-15p-8-----------------------|
-----------------------------------------------------------------17p-10h-16p-9h-15p-8--|
---------------------------------------------------------------------------------------|


Duration Legend
---------------
W - whole
H - half
Q - quarter
E - 8th
S - 16th
T - 32nd
X - 64th
. - note dotted
|-n-|  - n-tuplets


Tablature Legend
----------------
L - tied note
x - dead note
g - grace note
(n) - ghost note
> - accentuded note
NH - natural harmonic
AH - artificial harmonic
TH - tapped harmonic
SH - semi harmonic
PH - pitch harmonic
h - hammer on
p - pull off
b - bend
br - bendRelease
pb - preBend
pbr - preBendRelease
brb - bendReleaseBend
\\n/ - tremolo bar dip
\\n - tremolo bar dive
-/n - tremolo bar Release up
/n\\ - tremolo bar inverted dip
/n - tremolo bar return
-\\n - tremolo bar Release down
S - shift slide
s - legato slide
/ -  slide into from below or out of upwards
\\ -  slide into from above or out of downwards
~ - vibrato
W - wide vibrato
tr - trill
TP - tremolo picking
T - tapping
S - slap
P - pop
< - fade in
^ - brush up
v - brush down
Добавлено: 03.07.2012
Другие материалы по этой песне:

Страница создана 12.04.2012
http://primanota.ru/buckethead/finger-nubbing-chords.htm
Привет, Гость.
Предлагаем пройти революционный курс по гитаре.
Подарок от PrimaNota.Ru, забирай!