PrimaNota.ru - самый крупный в мире бесплатный архив песенных текстов, аккордов, табулатур и нот


Buckethead - Floating Graveyard - таба, видео

Регистрация Запомнить меня
Войти через:  Facebook Google Twitter Vk Yandex Mail.ru

Buckethead - Floating Graveyard - таба, видео

Печатать
Просмотров: 125
Уроки эстрадного вокала в Санкт-Петербурге
Song: Floating Graveyard
Artist: Buckethead
Album: 3 Foot Clearance

Tabbed by: Bucketfel


Standard Tunning

Tempo=120




0:00 - 0:30

GTR I
   Q Q H   W   +W    +W
E|-------|---|-----|-----|
B|-------|---|-----|-----|
G|-------|---|-----|-----| (REPEAT 4 TIMES)
D|-----5-|---|-----|-----|
A|---7---|-6-|-(6)-|-(6)-|
E|-0-----|---|-----|-----|


GRT II (ON THE THIRD TIME)

          <              >
          ~~~~~~~~~~~~~~~~
       RQ H.    +W     +W
E|---|----11-|-(11)-|-(11)-|
B|---|-------|------|------|
G|---|-------|------|------|
D|---|-------|------|------|
A|---|-------|------|------|
E|---|-------|------|------|




0:30 - 1:06

GTR I
   H Q   Q    H   H   +W    +W
E|----------|-------|-----|-----|
B|----------|-------|-----|-----|
G|----------|-------|-----|-----|(REPEAT 4 TIMES)
D|----------|-------|-----|-----|
A|-3-2---/7-|-10--6-|-(6)-|-(6)-|
E|-1-0------|-------|-----|-----|




1:07 - 1:35

GTR I
       |----------------let ring------------------|
   H   H    +W    +H   H   +W    +H   H   +W    +H
E|--------|-----|--------|-----|--------|-----|-----|
B|--------|-----|--------|-----|--------|-----|-----|
G|--------|-----|--------|-----|--------|-----|-----|
D|--------|-----|--------|-----|--------|-----|-----|
A|-3---2--|-(2)-|-(2)--2-|-(2)-|-(2)--2-|-(2)-|-(2)-|
E|-1---0--|-(0)-|-(0)--0-|-(0)-|-(0)--0-|-(0)-|-(0)-|


GTR II
        |-3-| |-3-|   |-3-| |-3-| |-3-| |-3-|   |-3-| |-3-|
   RH   E E E E E E   E E E E E E E E E E E E   E E E E E E
E|------------------|-------------------------|-------------|
B|------------------|-------------------------|-------------|
G|------------------|-------------------------|-------------|(REPEAT 8 TIMES, SKIP THE HALF REST
D|------------------|-------------------------|-------------|ON THE SECOND REPETITION AND FORWARD)
A|------------------|-------------------------|-------------|
E|------0-0-0-8-0-7-|-0-0-0-6-0-8-0-0-0-8-0-7-|-0-6-0-6-0-8-|



1:36 - 1:39

GTR I
   Q Q H   W
E|-------|---|
B|-------|---|
G|-------|-8-|
D|-----5-|-8-|
A|---7---|-6-|
E|-0-----|---|


1:40 - 1:55

GTR I
   H  Q. E   E E Q. Q.  H  Q. E   E E Q. Q.  H  Q. E   E E Q. Q.  H  Q. E   E E Q. Q.
E|---------|----------|---------|----------|---------|----------|---------|----------|
B|---------|----------|---------|----------|---------|----------|---------|----------|
G|---------|----------|---------|----------|---------|----------|---------|----------|
D|---------|-4-5-4--4-|-2--7----|-4-5-4--4-|---------|-4-5-4--4-|-2--7----|-4-5-4----|
A|-2--5----|-2-3-2--2-|-0--5--0-|-2-3-2--2-|-2--5----|-2-3-2--2-|-0--5--0-|-2-4-2--3-|
E|-0--3--0-|----------|---------|----------|-0--3--0-|----------|---------|--------1-|


GRT II
  RW  RW  RW  RW   H Q. E   E E Q. Q.  H Q. E   E E Q. Q.
E|---|---|---|---|--------|----------|--------|----------|
B|---|---|---|---|--------|----------|---3----|-0-1-0----|
G|---|---|---|---|--------|-4-5-4--4-|-2----2-|----------|
D|---|---|---|---|-2-5--2-|----------|--------|--------3-|
A|---|---|---|---|--------|----------|--------|----------|
E|---|---|---|---|--------|----------|--------|----------|



1:56 - 2:20

GTR I
   Q  Q  E  Q.  Q. Q. Q   +E   E E E H
E|------------|---------|--------------|
B|------------|---------|--------------|
G|------------|---------|--------------| (REPEAT 4 TIMES)
D|-------9--7-|-3--4--5-|-(5)--------3-| 
A|-2--2--7--5-|-1--2--3-|-(3)--------1-|
E|-0--0-------|---------|------0-1-2---|

GTR II
                                               |---3---|            |
   H  Q. E   E E Q. Q.  H Q. E   E E Q. Q.  H   Q  Q  Q    Q. Q. Q  |
E|---------|----------|--------|----------|--------------|----------|
B|---------|----------|---3----|-0-1-0----|-12--12-12-12-|-12-12-12-|
G|---------|-4-5-4--4-|-2----2-|----------|--------------|----------|
D|-2--5--2-|----------|--------|--------3-|--------------|----------|
A|---------|----------|--------|----------|--------------|----------|
E|---------|----------|--------|----------|--------------|----------|

                                    |--3--|  |--3--|         
  +E   E   E   E   S  Q.  S     Q.  E  E  E  E  E  E  S  T   
|----------12------10s12-(12)-|-12--12-10-------------------|
|-(12)-12------12-------------|-----------12-11-10----10-10-|
|-----------------------------|--------------------12-------|
|-----------------------------|-----------------------------|
|-----------------------------|-----------------------------|
|-----------------------------|-----------------------------|

|--3--|         |--3--|  3 3    3                                  3    3   |
   +T   S  E  E  E  Q. +T   E E E   E E Q  E S S S S  S E.  S S S  S S  S S S E Q. +S  |
E|--------------------------------|-----------------------|---------------------------||
B|-(10)s11-10----10---------------|-----------------------|---------------------------||
G|------------12----12-(12)-9-7---|-7-9-9--7--------------|-------------------7-9-(9)-||
D|------------------------------9-|----------9-8-7----7-8-|-8h9p8--7----7-8-9---------||
A|--------------------------------|----------------10-----|----------10---------------||
E|--------------------------------|-----------------------|---------------------------||
|

 |--3-|                       |---3---|  |--3--|   |
 E  E E  S  Q.  Q  +S     H   +E   E  E  E  E  E   |
------------------------|-------------10-12----10-||
---------10s12--12-(12)-|-12-(12)--12-------12----||
-12-9-12----------------|-------------------------||
------------------------|-------------------------||
------------------------|-------------------------||
------------------------|-------------------------||

        |--3--|                     |--3--|
  H     E  E  E    Q       Q.    E  E  E  E  Q     +W
-10b12------------15b17-|-15b17--15-------------|------|
--------17-15-17--------|-----------17-15-17-15-|-(15)-|
------------------------|-----------------------|------|
------------------------|-----------------------|------|
------------------------|-----------------------|------|
------------------------|-----------------------|------|

2:21 - 2:35

GTR I
   W   W   W   W
E|---|---|---|---|
B|---|---|---|---|
G|---|---|---|-8-| (REPEAT TWICE)
D|-2-|-2-|-2-|-8-|
A|-2-|-2-|-2-|-6-|
E|-0-|-0-|-0-|---|


2:36 - 2:59

GTR I
   Q Q H   W   +W    +W
E|-------|---|-----|-----|
B|-------|---|-----|-----|
G|-------|---|-----|-----| (REPEAT 3 TIMES)
D|-----5-|---|-----|-----|
A|---7---|-6-|-(6)-|-(6)-|
E|-0-----|---|-----|-----|


3:00 - 3:20

GTR I
               |----let ring----|
   Q Q H   W   W   +W    +W    +W
E|-------|---|---|-----|-----|-----|
B|-------|---|---|-----|-----|-----|
G|-------|-8-|-9-|-(9)-|-(9)-|-(9)-|
D|-----5-|-8-|-9-|-(9)-|-(9)-|-(9)-|
A|---7---|-6-|-7-|-(7)-|-(7)-|-(7)-|
E|-0-----|---|---|-----|-----|-----|




Duration Legend
---------------
R- rest
W - whole
H - half
Q - quarter
E - 8th
S - 16th
T - 32nd
+ - note tied to previous
. - note dotted


Tablature Legend
----------------
 h   - hammer-on
 p   - pull-off
 b   - bend
 /\  - slide into or out of (from/to "nowhere")
 s   - legato slide
 ~   - vibrato
 PM  - palm muting
 <>  - volume swell (louder/softer)
Добавлено: 15.05.2012
Другие материалы по этой песне:

Страница создана 15.05.2012
http://primanota.ru/buckethead/floating-graveyard-chords.htm
Привет, Гость.
Предлагаем пройти революционный курс по гитаре.
Подарок от PrimaNota.Ru, забирай!