PrimaNota.ru - самый крупный в мире бесплатный архив песенных текстов, аккордов, табулатур и нот


Buckethead - Buckethead Toystore - таба, видео

Регистрация Запомнить меня
Войти через:  Facebook Google Twitter Vk Yandex Mail.ru

Buckethead - Buckethead Toystore - таба, видео

Печатать
Просмотров: 187
Song: Buckhead Toystore
By: Buckethead

Tabbed by: Zachary Gibson

Today(the day i tabbed this) is actually the first time I had heard this song. I looked 
up and didn't see a good tab. Or anytabs actually.

********
Now I heard a couple different versions(I heard it on Project Playlist) but this one is 
shorter version.. I think. The song is 2:40 long.


**Tune Half-Step Down
-Eb-Ab-Db-Gb-Bb-eb-


*  = Pinch Harmonic
/\ = Slide up or Down
h  = Hammer-on
p  = Pull-off


ENJOY!

Intro - With great Distortion
                                  x3-----Third time only---------------|
-------|---------------------------|-----------------------------------|
-------|---------------------------|-----------------------------------|
-------|---------------------------|-----------------------------------|
-------|---------------------------|-----------------------------------|
-------|---4-4-4-4-----------------|--4---*4---*4----------*4----------|
--14/4-|---2-2-2-2--2/5--4-3-2-----|--2------2---2-2-2-2-----*2--------|


                           x3-----Third time only---------------|
|---------------------------|-----------------------------------|
|---------------------------|-----------------------------------|
|---------------------------|-----------------------------------|
|---------------------------|-----------------------------------|
|---4-4-4-4-----------------|--4---*4---*4---*4----*4-----------|
|---2-2-2-2--2/5--4-3-2-----|--2------2----2----2---------------|


With Wah Pedal
-------------------------------------------------|
-------------------------------------------------|
-------------------------------------------------|
-------------------------------------------------|
--7-----6-----7-------7--------------------------|
-----7-----6-----7------6-------1h2p1h2p1h1------|


Bass Part

This part is probably bass guitar but it sounds okay on guitar.
just as long as you find a bass like and distorted setting

--------------------------------------------------|
--------------------------------------------------|
--------------------------------------------------|
-----------------7---5----5-4-5--7----------------|
-----2/5--5----------------------------5----------|
--------------------------------------------------|

I'm not sure about this part. I know its not correct
--------------------------------------------------|
--------------------------------------------------|
--------------------------------------------------|
--------------------------------------------------|
--------------------------------------------------|
---0--3--3/7--5---5--3h5p0---0--1-1^--1^-1-0-1^---|

do that once then the second time just do an acsending E major scale and mess around. 
remember its actually on bass


Chorus - Clean or with VERY little Distortion/Gain

During this part there is a second guitar that plays Em and Cmaj every 4 beats.
You will get it easy. It, second guitar, plays with the bass.

   E              C
|--0--------------3--2---2h3p2----------|
|--0---------------------------------3--|
|--0------------------------------------|
|--2------------------------------------|
|--2------------------------------------|
|--0------------------------------------|


  E                        C
|--0-----------------------3--2---2h3p2------|
|------0-------------------------------------|
|----------0---------------------------------|
|-------------2------------------------------|
|-----------------2--------------------------|
|--------------------0-----------------------|

   E                           C
|--0---------------------------3p2---------|
|------0-----------------------3-----------|
|---------0--------------------------------|
|--------------2---------------------------|
|-----------------2------------------------|
|-----------------------0------------------|


   E              C
|--0--------------3--2---2h3p2---------------|
|--0-----------------------------------------|
|--0-----------------------------------------|
|--2-----------------------------------------|
|--2-----------------------------------------|
|--0-----------------------------------------|


Bridge x4

There is a slight delay or reverb in this part
|-------------------------------------------------------------------|
|-------------------------------------------------------------------|
|-------------------------------------0----------0----------0-------|
|--2-4-5-4---2-4-5-4---2-4-5-(4)----0---2------0---2------0---(2)---|
|---------------------------------3----------3----------3-----------|
|-------------------------------------------------------------------|

The last note(s) of each part are very quiet and barely audible. If you wanted too, you 
just hold the note before it and it would sound fine.


Chorus 2

   E              C
|--0--------------3--2---2h3p2----------------|
|--0--------------------------------3---------|
|--0-----------------------------------0------|
|--2------------------------------------------|
|--2------------------------------------------|
|--0------------------------------------------|

   E                   C
|----------------------3----2-----------|
|---------------------------------------|
|-------------0-------------------------|
|----------2----------------------------|
|------2--------------------------------|
|---0-----------------------------------|


   E              C
|--0--------------3--2--3p2--------------|
|--0---------------------------3---------|
|--0-------------------------------------|
|--2-------------------------------------|
|--2-------------------------------------|
|--0-------------------------------------|


####
   E                     C
|-------------------0----3--2------2h3p2-----------|
|----------------0--------------------------3------|
|-------------0------------------------------------|
|----------2---------------------------------------|
|------2-------------------------------------------|
|---0----------------------------------------------|


Then Go back to bridge and repeat

####BUT ON THE SECOND TIME PLAY THIS INSTEAD OF THE MEASURE ABOVE!
####THIS IS THE LAST MEASURE
-------------------0--|-----2--------|
-------------------0--|-----2--------|
-------------------0--|-----0--------|
--2--4-5-4--2------2--|-----0--------|
-------------------2--|-----1--------|
-------------------0--|-----2--------|

for the last note just play whatever sounds worse to you.Lol.
Добавлено: 24.05.2012
Другие материалы по этой песне:
  • Аккорды и текст

Страница создана 24.05.2012
http://primanota.ru/buckethead/buckethead-toystore-chords.htm
Привет, Гость.
Предлагаем пройти революционный курс по гитаре.
Подарок от PrimaNota.Ru, забирай!